>
 >
80 2

80 2 Bass Tabs

Green Day - 80 2 chords, tabs, tablatures, lyrics

Guitar lessons | Add/correct | Request | Top 50 tabs Artists:  A B C D E F G H I J K L M N O P Q R S T U V W X Y Z 0-9

80 2 Bass Tabs – Green Day

CD, Sheet music, Poster

Do you like 80 2? Share with your friends now
Bass TabsBass Tabs v2Ukulele
Band: Green Day
Bassist: Mike Dirnt
Transcripted by Eric Needreary

Intro

G|---6-6-6-6-----4-4-4-4-----3-3-3-3-----2-2-2-2-----|
D|-4-4-4-4-4-4-2-2-2-2-2-2-1-1-1-1-1-1-0-0-0-0-0-0-|
A|-------------------------------------------------|
E|---------------------------------------------------|

1st Verse

 \"My mental"...___________"girls like you"__________|
G|---6-6-6-6-----4-4-4-4-----3-3-3-3-----2-2-2-2-----|
D|-4-4-4-4-4-4-2-2-2-2-2-2-1-1-1-1-1-1-0-0-0-0-0-0-|
A|-------------------------------------------------|
E|---------------------------------------------------|

Pre-Chorus

 \"Everything she does"..."hurt myself"|
G|-------7----------------7------------|
D|-----------------------------------|
A|-5-5-5--3-33-3330-5-5-5--3-33-3330-|
E|-------------------------------------|

Chorus

 \"If anyone...____________________talking to myself"______________________|
G|----------------7------9-----------------------------------------------7-|
D|------5---------------------------------5-----------------------5h7p5----|
A|--------5-55-555--7-7-7--3-33-3330------------------3-3-3333-33-------5--|
E|-3-3-3-----------------------------3-3-3--1-11-1110----------------------|

 \"Anxiety...______________________against the wall"_______________________|
G|------9---------5------7-----------------------------------------------7-|
D|----------------------------------------5-----------------------5h7p5----|
A|-7-7-7--3-33-333--5-5-5--3-33-3330------------------3-3-3333-33-------5--|
E|-----------------------------------3-3-3--1-11-1110----------------------|

2nd Verse

 \"Sometimes I wonder...___________drunken fool"_____|
G|---6-6-6-6-6---4-4-4-4-4---3-3-3-3-3---2-2-2-2-2---|
D|-4-4-4-4-4-4-2-2-2-2-2-2-1-1-1-1-1-1-0-0-0-0-0-0-|
A|-------------------------------------------------|
E|---------------------------------------------------|

Pre-Chorus

 \"Everything she does"...trust myself"|
G|-------7----------------7------------|
D|-----------------------------------|
A|-5-5-5--3-33-3330-5-5-5--3-33-3330-|
E|-------------------------------------|

Chorus

 \"If anyone...____________________talking to myself"______________________|
G|----------------7------9-----------------------------------------------7-|
D|------5---------------------------------5-----------------------5h7p5----|
A|--------5-55-555--7-7-7--3-33-3330------------------3-3-3333-33-------5--|
E|-3-3-3-----------------------------3-3-3--1-11-1110----------------------|

 \"Anxiety...______________________against the wall"______________
G|------9---------5------7----------------------------------------|
D|----------------------------------------5-----------------------|
A|-7-7-7--3-33-333--5-5-5--3-33-3330------------------3-3-3333-33-|
E|-----------------------------------3-3-3--1-11-1110-------------|

Bridge

G|------5---------7------5----------------5---------7------5----------
D|--------------------------------------------------------------------
A|-3-3-3--5-55-555-------------------3-3-3--5-55-555------------------
E|------------------3-3-3--3-33-3330------------------3-3-3--3-33-3330

G|------5--------57--------------------|
D|--------------7----------------------|
A|-3-3-3--5-55-5----557----------------|
E|---------------------3-33-3-33/5-5-5-|

Post-Bridge

 \_________________________________________________x4|
G|---6-6-6-6-6---4-4-4-4-4---3-3-3-3-3---2-2-2-2-2---|
D|-4-4-4-4-4-4-2-2-2-2-2-2-1-1-1-1-1-1-0-0-0-0-0-0-|
A|-------------------------------------------------|
E|---------------------------------------------------|

Pre-Chorus

 \"Everything she does"...trust myself"|
G|-------7----------------7------------|
D|-----------------------------------|
A|-5-5-5--3-33-3330-5-5-5--3-33-3330-|
E|-------------------------------------|

Chorus

 \"If anyone...____________________talking to myself"______________________|
G|----------------7------9-----------------------------------------------7-|
D|------5---------------------------------5-----------------------5h7p5----|
A|--------5-55-555--7-7-7--3-33-3330------------------3-3-3333-33-------5--|
E|-3-3-3-----------------------------3-3-3--1-11-1110----------------------|

 \"Anxiety...______________________against the wall"_______________________|
G|------9---------5------7-----------------------------------------------7-|
D|----------------------------------------5-----------------------5h7p5----|
A|-7-7-7--3-33-333--5-5-5--3-33-3330------------------3-3-3333-33-------5--|
E|-----------------------------------3-3-3--1-11-1110----------------------|

Outro
 \__________________________________________Fade Out_|
G|---6-6-6-6-6---4-4-4-4-4---3-3-3-3-3---2-2-2-2-2---|
D|-4-4-4-4-4-4-2-2-2-2-2-2-1-1-1-1-1-1-0-0-0-0-0-0-|
A|-------------------------------------------------|
E|---------------------------------------------------|





Comments


Popular Green Day tabs & chords
Armatage Shanks 2 Bass Tabs
Best Thing In Town  Bass Tabs
Blood, Sex, And Booze 1 Bass Tabs
2000 Light Years Away 1 Chords
Armatage Shanks Chords
Good Riddance Time Of Your Life 3 Chords
American Idiot Tabs
Brain Stew 8 Tabs
Espionage Tabs
Scattered 1 Tabs


Song lyrics



↑ Back to top | Tablatures and chords are parodies/interpretations of the original songs. You may use it for private study, scholarship, research or language learning purposes only
© 2014 AZChords.com Contact us | Privacy policy | DMCA | Add/correct tabs | Request tabs | Top 50 tabs