» » »

Green Day, 80 Tabs (ver.2)

Artists:  A B C D E F G H I J K L M N O P Q R S T U V W X Y Z # 

80 Tabs (ver.2)

Green Day Tabs
Rating:
0/5 (0 votes)
80 lessons Tabs too difficult? Try these video lessons and learn fast
                green day
80
Intro:
e|---------------------------------------------------------------------------|
B|---------------------------------------------------------------------------|
G|--12-----------------------------------------------------------------------|
D|--12-----------------------------------------------------------------------|
A|--10-----------------------------------------------------------------------|
E|---------------------------------------------------------------------------|
      Let that chord ring out. Then after bass, slide pic down fret board to
      make that cool sound.

Pre chorus:
e|---------------------------------------------------------------------------|
B|---------------------------------------------------------------------------|
G|--7----5-------------------------------------------------------------------|
D|--7----5-------------------------------------------------------------------|
A|--5----3-------------------------------------------------------------------|
E|---------------------------------------------------------------------------|
      
Chorus:
e|---------------------------------------------------------------------------|
B|---------------------------------------------------------------------------|
G|-------7---9---------------------------------------------------------------|
D|---5---7---9--10-----------------------------------------------------------|
A|---5---5---7--10-----------------------------------------------------------|
E|---3-----------8-----------------------------------------------------------|

Bridge:
e|---------------------------------------------------------------------------|
B|---------------------------------------------------------------------------|
G|--12--10--9--8-------------------------------------------------------------|
D|--12--10--9--8-------------------------------------------------------------|
A|--10-- 8--7--6-------------------------------------------------------------|
E|---------------------------------------------------------------------------|
After this, go back to pre chorus, then to chorus

Bridge 2:
e|---------------------------------------------------------------------------|
B|---------------------------------------------------------------------------|
G|--5--7-------5-------------------------------------------------------------|
D|--5--7---5---5--5----------------------------------------------------------|
A|--3--5---5---3--5----------------------------------------------------------|
E|---------3------3----------------------------------------------------------|
   do this part twice            

bridge 2 cont.:
e|---------------------------------------------------------------------------|
B|---------------------------------------------------------------------------|
G|--5--7-----5--7------------------------------------------------------------|
D|--5--7--5--5--7------------------------------------------------------------|
A|--3--5--5--3--5------------------------------------------------------------|
E|--------3------------------------------------------------------------------|
            
Submit corrections

comments powered by Disqus
↑ Back to top | Green Day Tabs for 80. Lyrics for acoustic guitar and electric guitar. Tablatures and chords are parodies/interpretations of the original songs. You may use it for private study, scholarship, research or language learning purposes only