» » »

409 In Your Coffeemaker Bass tabs (ver.4)

Artists:  A B C D E F G H I J K L M N O P Q R S T U V W X Y Z # 

409 In Your Coffeemaker Bass tabs (ver.4)

Green Day
Rating:
0/5 (0 votes)

Tabs too difficult? Try these video lessons and learn fast.
                Intro
G|------------|
D|------------|
A|-3-3--------|
E|------0-2-3-|

Verse
G|-----------------|
D|-----------------|
A|-----------------|
E|-3-3-3-3-1-1-1-1-|

Chorus
G-------------------------------------------|
D-------------------------------------------|
A-33333-----33333-----33333-----33333-55555-|
E------33333-----33333-----33333------------|

Interlude                              
G|---------------------|----------------|
D|---------------------|----------------|
A|-----2-3-2-----0-1-0-|----------------|
E|-3-3-------1-1-------|-3-3--------1-1-|

Outro
G|------------------|
D|------------------|
A|-----(Guitar)-----|
E|-3-3----------1-1-|
	
            
Tabs too difficult? Try these video lessons and learn fast.




comments powered by Disqus
↑ Back to top | Tablatures and chords are parodies/interpretations of the original songs. You may use it for private study, scholarship, research or language learning purposes only