» » »

Green Day, 21 Guns Tabs (ver.16)

Artists:  A B C D E F G H I J K L M N O P Q R S T U V W X Y Z # 

21 Guns Tabs (ver.16)

Green Day Tabs
Rating:
0/5 (0 votes)
Hard to play? Try these video lessons and learn fast.
                album:21st century breakdown

tuning:standard
legend:

    ~ - let it ring
    / - slide
    x - dead string
   ( )- optional notes


intro:

   guitar 2: (it's like an arpeggio)

e|---------5~--0~--|
B|--6~-------------|
G|------7~---------| (2x)
D|-----------------| 
A|-----------------|
E|-----------------|


verse:

   guitar 1: (more treble!focus on the lower strings)

e|--1-1---1-1---1-1---0-0-0--|      |--1-1-1-1---0-0-0-0---|
B|--3-3---3-3---1-1---1-1-1--|      |--3-3-3-3---1-1-1-1---|
G|--2-2---3-3---2-2---0-0-0--| (3x) |--3-3-3-3---0-0-0-0---|
D|--0-0---3-3---3-3---2-2-2--|      |--3-3-3-3---2-2-2-2---|
A|--x-x---1-1---3-3---3-3-3--|      |--1-1-1-1---3-3-3-3---|
E|--x-x---x-x---x-x---x-x-x--|      |--x-x-x-x---x-x-x-x---|

verse 2:

   guitar 1:

e|--1-1---1-1---1-1---0-0-0--|      |--1~--|
B|--3-3---3-3---1-1---1-1-1--|      |--3~--|
G|--2-2---3-3---2-2---0-0-0--| (3x) |--3~--|
D|--0-0---3-3---3-3---2-2-2--|      |--3~--|
A|--x-x---1-1---3-3---3-3-3--|      |--1~--|
E|--x-x---x-x---x-x---x-x-x--|      |--x---|

   guitar 2: (this is not necessary,but this can help for improvation :D)

e|-------------------------|       |------|
B|-------------------------|       |------|
G|--7-7--------------5-5---|       |--3~--|
D|--7-7--8-8---3-3---5-5---| (3x)  |--3~--|
A|--5-5--8-8---3-3---3-3---|       |--1~--|
E|-------6-6---1-1---------|       |------|

post-chorus:

   both guitar : (distorted)

e|-------|
B|-------|
G|---5---|
D|---5---|
A|---3---|
E|-------|

chorus:

   guitar 1 :

e|--------------------------------------------------|
B|--------------------------------------------------|
G|---------(0)--7-7---5-5--55-3333--------55555555--|
D|--3-3---2-2---7-7---5-5--55-3333--3333--55555555--| (2x)
A|--3-3---3-3---5-5---3-3--33-1111--3333--33333333--|
E|--1-1---0-0-----------------------1111------------|

   guitar 2: (distorted)

e|------------------------------------------------------|
B|----------------------------------------------/5-6-8--|
G|---------(0)--7-7---5-5--55-3333--------5555----------|
D|--3-3---2-2---7-7---5-5--55-3333--3333--5555----------| (2x)
A|--3-3---3-3---5-5---3-3--33-1111--3333--3333----------|
E|--1-1---0-0-----------------------1111----------------|


then... (...you and i...)


   both guitars:

e|--------------------------|
B|--------------------------|
G|--3333--------5555555555--|
D|--3333--3333--5555555555--|
A|--1111--3333--3333333333--|
E|--------1111--------------|


verse 3:

   guitar 1:

e|--1-1---1-1---1-1---0-0-0--|      |--1-1-1-1---0-0-0-0---|
B|--3-3---3-3---1-1---1-1-1--|      |--3-3-3-3---1-1-1-1---|
G|--2-2---3-3---2-2---0-0-0--| (3x) |--3-3-3-3---0-0-0-0---|
D|--0-0---3-3---3-3---2-2-2--|      |--3-3-3-3---2-2-2-2---|
A|--x-x---1-1---3-3---3-3-3--|      |--1-1-1-1---3-3-3-3---|
E|--x-x---x-x---x-x---x-x-x--|      |--x-x-x-x---x-x-x-x---|

   guitar 2: 

e|--------------------------|       |----------------------|
B|--------------------------|       |----------------------|
G|--7-7--------------5-5-5--|       |--3-3-3-3---5-5-5-5---|
D|--7-7--8-8---3-3---5-5-5--| (3x)  |--3-3-3-3---5-5-5-5---|
A|--5-5--8-8---3-3---3-3-3--|       |--1-1-1-1---3-3-3-3---|
E|-------6-6---1-1----------|       |----------------------|

   extra!!!:[you can find someone who'll play this(piano or another guitar)]

e|---------5~--0~--|      |------0~--|
B|--6~-------------|      |----------|
G|------7~---------| (3x) |--7~------|
D|-----------------|      |----------|
A|-----------------|      |----------|
E|-----------------|      |----------|  (guitar 2 can probably play this)

verse 4:

   guitar 1:

e|--1-1---1-1---1-1---0-0-0--|      |--1~--|
B|--3-3---3-3---1-1---1-1-1--|      |--3~--|
G|--2-2---3-3---2-2---0-0-0--| (3x) |--3~--|
D|--0-0---3-3---3-3---2-2-2--|      |--3~--|
A|--x-x---1-1---3-3---3-3-3--|      |--1~--|
E|--x-x---x-x---x-x---x-x-x--|      |--x---|

   guitar 2: 

e|-------------------------|       |------|
B|-------------------------|       |------|
G|--7-7--------------5-5---|       |--3~--|
D|--7-7--8-8---3-3---5-5---| (3x)  |--3~--|
A|--5-5--8-8---3-3---3-3---|       |--1~--|
E|-------6-6---1-1---------|       |------|

   extra:

e|---------5~--0~--|      |------|
B|--6~-------------|      |------|
G|------7~---------| (3x) |--7~--|
D|-----------------|      |------|
A|-----------------|      |------|
E|-----------------|      |------|


play post-chorus
repeat chorus


bridge:

   guitar 1: 

e|----------------------------|-------------------------------|
B|----------------------------|-------------------------------|
G|---7-7--------------555555--|--7-7--------------------------|
D|---7-7---8-8---3-3--555555--|--7-7--8-8--8\\\\3333--777777--|
A|---5-5---8-8---3-3--333333--|--5-5--8-8--8\\\\3333--777777--|
E|---------6-6---1-1----------|-------6-6--6\\\\1111--555555--|

   guitar 2:

e|--------------------------------------|---------------------------|
B|----6---6---6---6---6-----------------|--6-6-6-6-6----------------|
G|------7---7---7---7---7-------555555--|---7-7-7-7-7-------555555--|
D|-------------------------3-3--555555--|--------------3-3--555555--|
A|-------------------------3-3--333333--|--------------3-3--333333--|
E|-------------------------1-1----------|--------------1-1----------|


continued...

    guitar 1

e|----------------------------|----------------------|
B|----------------------------|----------------------|
G|---7-7--------------555555--|--33333333--55555555--|
D|---7-7---8-8---3-3--555555--|--33333333--55555555--|
A|---5-5---8-8---3-3--333333--|--11111111--33333333--|
E|---------6-6---1-1----------|----------------------|

   guitar 2

e|---------------------------|----------------------|
B|--6-6-6-6-6----------------|----------------------|
G|---7-7-7-7-7-------555555--|--33333333--55555555--|
D|--------------3-3--555555--|--33333333--55555555--|
A|--------------3-3--333333--|--11111111--33333333--|
E|--------------1-1----------|----------------------|


solo:

   gutiar 1:

e|--------------------------------------------------|
B|--------------------------------------------------|
G|-------------7777--5555--55-3333--------55555555--|
D|--333--2222--7777--5555--55-3333--3333--55555555--| 
A|--333--3333--5555--3333--33-1111--3333--33333333--|
E|--111--0000-----------------------1111------------|

   guitar 2:

e|-------5-------5--------------------------------0000----------|
B|-----6---6--8---6-----6----55-6-------3---------------/5-6-8--| 
G|---7----------------7---7-------7---3---3--5-3----------------|
D|--------------------------------------------------------------|
A|--------------------------------------------------------------|
E|--------------------------------------------------------------|

continued:

 gutiar 1:

e|--------------------------------------------------|
B|--------------------------------------------------|
G|-------------7777--5555--55-3333--------55555555--|
D|--333--2222--7777--5555--55-3333--3333--55555555--| 
A|--333--3333--5555--3333--33-1111--3333--33333333--|
E|--111--0000-----------------------1111------------|

   guitar 2:

e|-------5-------5--------------------------------0000-------8~--|
B|-----6---6--8---6-----6----55-6-------3---------------/5-6-----| 
G|---7----------------7---7-------7---3---3--5-3-----------------|
D|---------------------------------------------------------------|
A|---------------------------------------------------------------|
E|---------------------------------------------------------------|

continued:

  guitar 1:

e|--------------------------|
B|--------------------------|
G|--3333--------5555555555--|
D|--3333--3333--5555555555--|
A|--1111--3333--3333333333--|
E|--------1111--------------|

  guitar 2:

e|---------------------------|
B|----3-------------555555---|
G|--3---3---5-3-2------------|
D|---------------------------|
A|---------------------------|
E|---------------------------|


post-verse:


e|---------5~--0~--|
B|--6~-------------|
G|------7~---------| (2x)
D|-----------------| 
A|-----------------|
E|-----------------|

verse:

 guitar 1:

e|--1-1---1-1---1-1---0-0-0--|      |--1~--|
B|--3-3---3-3---1-1---1-1-1--|      |--3~--|
G|--2-2---3-3---2-2---0-0-0--| (3x) |--3~--|
D|--0-0---3-3---3-3---2-2-2--|      |--3~--|
A|--x-x---1-1---3-3---3-3-3--|      |--1~--|
E|--x-x---x-x---x-x---x-x-x--|      |--x---|

chorus: 

  guitar 1 :

e|--------------------------------------------------|
B|--------------------------------------------------|
G|---------(0)--7-7---5-5--55-3333--------55555555--|
D|--3-3---2-2---7-7---5-5--55-3333--3333--55555555--| (2x)
A|--3-3---3-3---5-5---3-3--33-1111--3333--33333333--|
E|--1-1---0-0-----------------------1111------------|

  guitar 2: (distorted)

e|------------------------------------------------------|
B|----------------------------------------------/5-6-8--|
G|---------(0)--7-7---5-5--55-3333--------5555----------|
D|--3-3---2-2---7-7---5-5--55-3333--3333--5555----------| (2x)
A|--3-3---3-3---5-5---3-3--33-1111--3333--3333----------|
E|--1-1---0-0-----------------------1111----------------|


final chorus:


  guitar 1 :

e|--------------------------------------------------|
B|--------------------------------------------------|
G|---------(0)--7-7---5-5--55-3333--------55555555--|
D|--3-3---2-2---7-7---5-5--55-3333--3333--55555555--| (2x)
A|--3-3---3-3---5-5---3-3--33-1111--3333--33333333--|
E|--1-1---0-0-----------------------1111------------|

  guitar 2:

e|---------5----------5------------------------|
B|---6-6-6------6-6-6------------------/5-6-9--|
G|----7-7-7-7----7-7-7-7---------5555----------|
D|-------------------------3333--5555----------| (2x)
A|-------------------------3333--3333----------|
E|-------------------------1111----------------|

continued... (...you and i...)

   both guitars:

e|---------------------|
B|---------------------|
G|--333333-------------|
D|--333333--333333-----|
A|--111111--333333-----|
E|----------111111-----|

last chord:

   both guitars:

e|------||
B|------||
G|--5~--||
D|--5~--||
A|--3~--||
E|------||
_____________________________________________________________________________

okay...i made this tab cause some tabs weren't really that complete... well
the whole nation needs a complete and accurate one,so i made it!haha... 
this is almost perfect,i mean it...trust this,you wouldn't regret it! haha
cheers to green day!(oops...i added something in the bridge!"06/25/09")
_____________________________________________________________________________

okay! :D
LONG LIVE EARTH!XD
            

comments powered by Disqus
↑ Back to top | Green Day Tabs for 21 Guns. Lyrics for acoustic guitar and electric guitar. Tablatures and chords are parodies/interpretations of the original songs. You may use it for private study, scholarship, research or language learning purposes only