» » »

Green Day, 21 Guns Tabs (ver.13)

Artists:  A B C D E F G H I J K L M N O P Q R S T U V W X Y Z # 

21 Guns Tabs (ver.13)

Green Day Tabs
 Rating:
4/5 (4 votes)
21 Guns lessons Tabs too difficult? Try these video lessons and learn fast
                

Standard Tuning

Guitar 1 - Acoustic - 
Guitar 2 - Electric - Lead
Guitar 3 - Electric - Rhythm

This is a more detailed version of the song with all three guitar parts. Enjoy

Intro (0:17)

Guitar 1

|-0--0---------0--0----0~-0--|
|-3~-33-3~-----1~-1-11-1~111-|
|-2~-22-3~-33--2~-2-22-0~000-|
|-0~-00-3~-33--3~-3-33-2~222-|
|-0~-00-1~-11--0~-0-00-3~333-| x3
|----------------------------|


|----------------0------0---|
|--------------1-1-11-1-1-1-|
|-3-3-33-3-3-3-0-0-00-0-0-0-|
|-3-3-33-3-3-3-2-2-22-2-2-2-|
|-1-1-11-1-1-1-3-3-33-3-3-3-|
|--------------0-0-00-0-0-0-|

Verse 1 (0:40)

Guitar 1

|-0--0---------0--0----0~-0--|
|-3~-33-3~-----1~-1-11-1~111-|
|-2~-22-3~-33--2~-2-22-0~000-|
|-0~-00-3~-33--3~-3-33-2~222-|
|-0~-00-1~-11--0~-0-00-3~333-| x3
|----------------------------|



|-----|
|-----|
|-3~~-|
|-3~~-|
|-1~~-|
|-----|

Guitar 2

|------------------------|
|------------------------|
|-7-77-3-33-10-1010-5-55-|
|-7-77-3-33-10-1010-5-55-|
|-5-55-1-11-8---8-8-3-33-| x3
|------------------------|


|-------|
|-------|
|-3~~-5-|
|-3~~-5-|
|-1~~-3-|
|-------|

Chorus (1:05)

Guitar 1

|---------------------------------|
|----11-33-1111----------11111111-|
|----00-22-2222-3333-----00000000-|
|-33-22-00-3333-33333333-22222222-|
|-33-33-00-0000-11113333-33333333-|
|-11----------------1111----------| x2

|------------|
|---------1~-|
|-3333----0~-|
|-333333332~-|
|-111133333~-|
|-----1111---|

Guitar 2 & 3

|------------------------------|------|
|------------------------------|-568~-|< guitar 2 plays this part
|----55-77-5555-3333------5555-|-5555-|< guitar 3 continues
|-33-55-77-5555-3333-3333-5555-|-5555-|  playing chords
|-33-33-55-3333-1111-3333-3333-|-3333-|
|-11-----------------1111------|------|

|------------|
|------------|
|-3333----5~-|
|-333333335~-|
|-111133333~-|
|-----1111---|

Verse 2 (1:34)


Guitar 1

|-0--0---------0--0----0~-0--|
|-3~-33-3~-----1~-1-11-1~111-|
|-2~-22-3~-33--2~-2-22-0~000-|
|-0~-00-3~-33--3~-3-33-2~222-|
|-0~-00-1~-11--0~-0-00-3~333-| x3
|----------------------------|


|----------------0------0---|
|--------------1-1-11-1-1-1-|
|-3-3-33-3-3-3-0-0-00-0-0-0-|
|-3-3-33-3-3-3-2-2-22-2-2-2-|
|-1-1-11-1-1-1-3-3-33-3-3-3-|
|--------------0-0-00-0-0-0-|

|-0--0---------0--0----0~-0--|
|-3~-33-3~-----1~-1-11-1~111-|
|-2~-22-3~-33--2~-2-22-0~000-|
|-0~-00-3~-33--3~-3-33-2~222-|
|-0~-00-1~-11--0~-0-00-3~333-| x3
|----------------------------|

|-----|
|-----|
|-3~~-|
|-3~~-|
|-1~~-|
|-----|

Guitar 2

|------------------------|
|------------------------|
|-7-77-3-33-10-1010-5-55-|
|-7-77-3-33-10-1010-5-55-|
|-5-55-1-11-8---8-8-3-33-| x3 then
|------------------------|

|---------------------------|
|---------------------------|
|-5-5-55-5-5-5-7-7-77-7-7-7-|
|-5-5-55-5-5-5-7-7-77-7-7-7-|
|-3-3-33-3-3-3-5-5-55-5-5-5-|
|---------------------------|

|------------------------|
|------------------------|
|-7-77-3-33-10-1010-5-55-|
|-7-77-3-33-10-1010-5-55-|
|-5-55-1-11-8---8-8-3-33-| x3 then
|------------------------|

|-------|
|-------|
|-3~~-5-|
|-3~~-5-|
|-1~~-3-|
|-------|

Chorus (2:23)

Guitar 1

|---------------------------------|
|----11-33-1111----------11111111-|
|----00-22-2222-3333-----00000000-|
|-33-22-00-3333-33333333-22222222-|
|-33-33---------11113333-33333333-|
|-11----------------1111----------| x2

|------------------|
|---------11111111-|
|-3333----00000000-|
|-3333333322222222-|
|-1111333333333333-|
|-----1111---------|

Guitar 2 & 3

|------------------------------|------|
|-------------------------5-5--|-568~-|< guitar 2 plays this part
|----55-77-5555-3333------5555-|-5555-|< guitar 3 continues
|-33-55-77-5555-3333-3333-5555-|-5555-|  chords
|-33-33-55-3333-1111-3333-3333-|-3333-|
|-11-----------------1111------|------| x2

|------------------|
|------------------|
|-3333----55555555-|
|-3333333355555555-|
|-1111333333333333-|
|-----1111---------|

Bridge (2:52)

Guitar 1

|-------------------------------|
|-33-------1111-33--------------|
|-22-33----0000-22-33------2222-|
|-00-33-33-2222-00-33-3333-2222-|
|-00-11-33-3333-00-11-3333-0000-|
|-------11------------1111------|


|------------------|
|-33-------1111-33-|
|-22-33----0000-22-|
|-00-33-33-2222-00-|
|-00-11-33-3333-00-|
|-------11---------|

|------------------|
|------------------|
|-3333333355555555-|
|-3333333355555555-|
|-1111111133333333-|
|------------------|

Guitar 2

|---------------------------------|
|-6---6---6---6---6---6---5---5---|
|---7---7---7---7---7---7---5---5-|
|---------------------------------|
|---------------------------------|
|---------------------------------|

|---------------------------------|
|-6---6---6---6---6---6---5-5-5-5-|
|---7---7---7---7---7---7---------|
|---------------------------------|
|---------------------------------| x2
|---------------------------------|

Guitar 3

|-------------------------------|
|-------------------------------|
|-77-------5555-77--------------|
|-77-88-33-5555-77-88-3333-7777-|
|-55-88-33-3333-55-88-3333-7777-|
|----66-11---------66-1111-5555-|

|-----------------------------------|
|-----------------------------------|
|-77-33------2222-33333333-55555555-|
|-77-33-3333-2222-33333333-55555555-|
|-55-11-3333-0000-11111111-33333333-|
|-------1111-0000-------------------|

Solo (3:15)

Guitar 2

|---5---3---5----------------------------------------|
|-------------6~-6---5-5-6-3~---3---1------5~-5~568~-|
|-5---5---5--------5----------3---3---2--------------|
|---------------------------------------3~-----------|
|----------------------------------------------------|
|----------------------------------------------------|

|---5---3---5----------------------------------------12b~-|
|-------------6~-6---5-5-6-3~---3---1----------------12b~-|
|-5---5---5--------5----------3---3---2---9~-9~-9-10------|
|---------------------------------------3-----------------|
|---------------------------------------------------------|
|---------------------------------------------------------|

|--------------------------|
|-3-----1------------------|
|---3-----2----9~-9~-9~-9~-|
|-----3-----3--------------|
|--------------------------|
|--------------------------|

Guitar 1 & 3


|----------------------------------------|
|------1111-3333----------------11111111-|
|------0000-2222-5555-3333------00000000-|
|-3333-2222-0000-5555-3333-3333-22222222-|
|-3333-3333-0000-3333-1111-3333-33333333-|x2
|-1111---------------------1111----------|

|--------------------|
|--------------------|
|-3333------22222222-|
|-3333-3333-22222222-|
|-1111-3333-00000000-|
|------1111-00000000-|

Post Solo (3:56)

Guitar 1

|-0--0---------0--0----0~-0--|
|-3~-33-3~-----1~-1-11-1~111-|
|-2~-22-3~-33--2~-2-22-0~000-|
|-0~-00-3~-33--3~-3-33-2~222-|
|-0~-00-1~-11--0~-0-00-3~333-| x3
|----------------------------|

|-----|
|-----|
|-3~~-|
|-3~~-|
|-1~~-|
|-----|

Chorus - Outro (4:21)

Guitar 1

|---------------------------------|
|----11-33---------------11111111-|
|----00-22-5555-3333-----00000000-|
|-33-22-00-5555-33333333-22222222-|
|-33-33----3333-11113333-33333333-| x4
|-11----------------1111----------|

|------------|
|---------1~-|
|-3333----0~-|
|-333333332~-|
|-111133333~-|
|-----1111---|

Guitar 2

|----------------------------------|
|----------------------------------|
|----55-77-5555-3333------55555555-|
|-33-55-77-5555-3333-3333-55555555-|
|-33-33-55-3333-1111-3333-33333333-| x4
|-11-----------------1111----------|

|------------|
|------------|
|-3333----5~-|
|-333333335~-|
|-111133333~-|
|-----1111---|

Guitar 3

|----------------------------------|
|-------------------------5-5-568~-|
|----55-77-5555-3333---------------|
|-33-55-77-5555-3333-3333----------|
|-33-33-55-3333-1111-3333----------| x2
|-11-----------------1111----------|

|---------------------------------|
|-6---6---6---8---6---6---6---6---|
|---5---5---5---5---7---7---5---5-|
|---------------------------------|
|---------------------------------|
|---------------------------------|
                                    }x2
|--------------------------|
|-6---6---6---6---5-5-568~-|
|---7---7---5---5----------|
|--------------------------|
|--------------------------| 
|--------------------------|


|----------------|
|-3-----1-----5~-|
|---3-----2---5~-|
|-----3-----3----|
|----------------|
|----------------|
            
Submit corrections

comments powered by Disqus
↑ Back to top | Green Day Tabs for 21 Guns. Lyrics for acoustic guitar and electric guitar. Tablatures and chords are parodies/interpretations of the original songs. You may use it for private study, scholarship, research or language learning purposes only