>
 >
Pile Of Doubt

Pile Of Doubt Guitar Tabs

Green Carnation - Pile Of Doubt chords, tabs, tablatures, lyrics

Guitar lessons | Add/correct | Request | Top 50 tabs Artists:  A B C D E F G H I J K L M N O P Q R S T U V W X Y Z 0-9

Pile Of Doubt Guitar Tabs – Green Carnation

CD, Sheet music, Poster

Do you like Pile Of Doubt? Share with your friends now
Tabs

Performed By: Green Carnation
Lyrics & Music Written By: Stein Roger Sordal


D-Tuning (D G C F A d) Low to High

Intro:

(0:04)
|---------------------------------------------------------------------
|---------------------------------------------------------------------
|------16------16-----16-----19------19-----19-----19------19-----19--
|--14------14------14----17------17------17----16------16------16-----
|---------------------------------------------------------------------
|---------------------------------------------------------------------


 -------------------------|
 ------19------19-----19--|
 -------------------------|
 --19------19------19-----|
 -------------------------|
 -------------------------|

(Played twice alone, then repeated under the following):

 
 (0:25)
|--------------------------------|
|--------------------------------|
|--------------------4--------7--|
|--2--------5--------4--------7--|   x1
|--2--------5--------2--------5--|
|--0--------3--------------------|


 (0:38)
|--------------------------|
|--------------------------|
|--------------------------|
|---------------9"----12"--|   x4
|--7"----10"---------------|
|--------------------------|
   .     .      .     .


Verse 1 (1:14):
|---------------------------------------------|
|---------------------------------------------|
|---------------------------------------------|
|--------5-5-------5-5-------5-5---------0-2--|   x2
|--------3-3-------3-3-------3-3-------0------|
|--0-0-0-----0-0-0-----0-0-0-----0-0-0--------|
   . . .     . . .     . . .     . . . . . .


|---------------------------------------------|
|---------------------------------------------|
|---------------------------------------------|
|--------4-4-------4-4-------4-4---------0-2--|   x2   
|--------2-2-------2-2-------2-2-------0------|
|--0-0-0-----0-0-0-----0-0-0-----0-0-0--------|
   . . .     . . .     . . .     . . . . . .

(Played twice, then into chorus)


Chorus (1:44):
(Let notes ring)

 Guitar 1
|---------------------------|
|---------------------------|
|---------------------------|
|------------0----2----2p0--|   x4
|--2----3-------------------|
|---------------------------|

 Guitar 2
|------------------------|
|------------------------|
|------16------16----16--|
|--14------14-----14-----|   x4
|------------------------|
|------------------------|


 (2:01)
|------------------------------------------------------------|
|------------------------------------------------------------|
|----------4h5p4---------3h4p3---------4h5p4----------2-5\4--|
|-----------------------------------------------------2-5\4--|
|-----------------------------------------------------0-3\2--|
|--0-0-0-0-------0-0-0-0-------0-0-0-0-------0-0-0-0---------|
   . . . .       . . . .       . . . .       . . . .

(Played twice)


(Repeat Intro, but do not play power chord part)
(Repeat Verse)
(Repeat Chorus)
(Repeat Intro, but do not play power chord part)


(3:58)

 x4          x4              x4
|-----------|---------------|--------------------|
|-----------|---------------|--------------------|
|--5--5-----|--5--5---------|--------10-10-10p0--|
|--5--5--2--|--5--5--2-2-2--|--7--7--10-10-10p0--|
|--3--3--2--|--3--3--2-2-2--|--7--7---8--8--8p0--|
|--------0--|--------0-0-0--|--5--5--------------|


(Repeat Chorus twice)


Outro (5:05)

|---------------------------------------0------|
|----------------------------0------------0----|
|------0----------0------------0------------0--|
|--------2----------2----0-0-----0--2-2--------|
|--2-2-----2--3-3-----3------------------------|
|----------------------------------------------|

(Repeat until fade)


END





Comments


Popular Green Carnation tabs & chords
As Life Flows By Tabs
Crushed To Dust Tabs
Lullaby In Winter Tabs
Myron And Cole Tabs


Song lyrics



↑ Back to top | Tablatures and chords are parodies/interpretations of the original songs. You may use it for private study, scholarship, research or language learning purposes only
© 2014 AZChords.com Contact us | Privacy policy | DMCA | Add/correct tabs | Request tabs | Top 50 tabs