>
 >
Myron And Cole

Myron And Cole Guitar Tabs

Green Carnation - Myron And Cole chords, tabs, tablatures, lyrics

Guitar lessons | Add/correct | Request | Top 50 tabs Artists:  A B C D E F G H I J K L M N O P Q R S T U V W X Y Z 0-9

Myron And Cole Guitar Tabs – Green Carnation

CD, Sheet music, Poster

Do you like Myron And Cole? Share with your friends now
Tabs

Performed By: Green Carnation
Lyrics & Music By: Stein Roger Sordal


D-Tuning (D G C F A d) Low to High

(LONG pickslide down A & D strings, then quick slide back up
 then into intro)


Intro:
(Guitar 1 Only)

 x8
|-----------0--|
|--------3-----|
|-----0--------|
|--2-----------|
|--------------|
|--------------|


(0:20)
(Guitar 1)

 x18
|-----------0--|
|--------3-----|
|-----0--------|
|--2-----------|
|--------------|
|--------------|


(Guitar 2)
(Play twice)

 x4                 x4                    x1
|------------------|---------------------|--------------|
|----------12--14--|--15--14h15----------|--------------|
|------12----------|-------------16--14--|--------------|
|--14--------------|---------------------|--17--16--17--|
|------------------|---------------------|--------------|
|------------------|---------------------|--------------|


(0:46)
|----------------------------------0-----------0--|
|-------------------------------3-----------3-----|
|--9-----12-----7\\\\--------0-----------0--------|
|--9--9--12--9--7\\\\--2--2-----------2-----------|
|--7--9--10--9--5\\\\--2--------------------------|
|-----7------7---------0--------------------------|

 ---------------------------|
 ---------------------------|
 --9-----12-----7\\\\-------|
 --9--9--12--9--7\\\\--2-2--|
 --7--9--10--9--5\\\\--2-2--|
 -----7------7---------0-0--|


(0:56)
(Play 3 times)

|--------------------------------------------------------------|
|--------------------------------------------------------------|
|----------------------4---4---4--4-4-4-4----------------------|
|--2---2---2--2-2-2-2--4---4---4--4-4-4-4--7---7---7--7-7-7-7--|
|--2---2---2--2-2-2-2--2-2-2-2-2--2-2-2-2--7---7---7--7-7-7-7--|
|--0-0-0-0-0--0-0-0-0----------------------5-5-5-5-5--5-5-5-5--|
     .   .               .   .               .   .

|----------------------|
|----------------------|
|----------------------|
|--3---3---3--3-3-3-3--|
|--3---3---3--3-3-3-3--|
|--1-1-1-1-1--1-1-1-1--|
     .   .


Verse (1:35)
(Played 6 times)

|------------------------------------------|
|------------------------------------------|
|---------------7/9-9---------------5/7-7--|
|--2----5--5--2-7/9-9--2----5--5--2-5/7-7--|
|--2----5--3--2-5/7-7--2----5--5--2-3/5-5--|
|--0-0--3--3--0--------0-0--3--3--0--------|
     .                   .

Myron and Cole had a plan heading off to another World
Inhaling an acre of Myron's sweet garden of pleasure
Waving goodbye to the rational patterns of thinking


Chorus (2:04)
(Played twice)
(* = Guitar 2 strums 11th fret on e-string here until end)
(Chord in brackets is optional)

|---------------------------------------------------------------------|
|----------------------------------*----------------------------------|
|--9---9-9-9---9-9-9---9-9-9---9-9-4--5--4--5--4-5-4--5--4--5--4------|
|--9---9-9-9---9-9-9---9-9-9---9-9-4--5--4--5--4-5-4--5--4--5--4-(5)--|
|--7-7-7-7-7-7-7-7-7-7-7-7-7-7-7-7-2--3--2--3--2-3-2--3--2--3--2-(5)--|
|----------------------------------------------------------------(3)--|
     .       .       .       .

High above, swans sails the orbits of Earth
Waiting for peace below, dying to go with the flow


Interlude (2:25)
(*C = Guitar 2 strums C chord here)
(*Em = Upstrum Em (towards low E string))

                              *C                                  *Em
|---------7--------------------------------------------------------0--|
|--8--10-----8--7-----------0--1--0-----1--0-----1--0-----1--0-----0--|
|------------------9-----------------0--------0--------0--------0--0--|
|------------------------0-----------------------------------------2--|
|------------------------------------------------------------------2--|
|---------------------3--------------------------------------------0--|

(Repeat once, without final Em, then into Verse)


(2:42)
(Repeat Verse Part, except play 4 times)

Cole starts to shiver, he's sweating and swears that an Angel's here
He's crying while speaking of colors which does not exist


(3:01)
(Repeat Chorus Part)

Let me bleed for knowledge an Angel possess
Speak to the world through me, I live for a reason to be


(3:21)                                              (3:40)
 x2                                                 x1
|--------------------------------------------------|-----------|
|--------------------------------------------------|-----------|
|---------------3--4--5\\---------------9--8--7\\--|-----------|
|--2----5-5--2--3--4--5\\--2----5-5--2--9--8--7\\--|--7--8--3--|
|--2----5-5--2--1--2--3\\--2----5-5--2--7--6--5\\--|--7--8--3--|
|--0----3-3--0-------------0----3-3--0-------------|--5--6--1--|
                                                    (12)(8)(4)
                                                    strum count


(3:45)
 x2                                         x4
|-------------------------------------|-------------------------------------|
|-------------------------------------|-------------------------------------|
|--------------------0-0-----1--0h1p0-|--------------------4-4-----5--4h5p0-|
|----1-1-----2-2----------------------|----4-4-----5-5----------------------|
|-------------------------------------|-------------------------------------|
|-0-------0-------0-------0-----------|-0-------0-------0-------0-----------|


(4:14)
(Repeat Verse Part, except play 4 times)

Myron stood up and he laughed in his moment of clarity
Said to his friend: "Are we ever to come to our senses?"


(4:33)
(Repeat Chorus Part twice)

High above, swans sails the orbits of Earth
Waiting for peace below, dying to go with the flow


(5:11)
(Repeat Interlude Part 4 times and fade out)

END





Comments


Popular Green Carnation tabs & chords
As Life Flows By Tabs
Crushed To Dust Tabs
Lullaby In Winter Tabs
Pile Of Doubt Tabs


Song lyrics



↑ Back to top | Tablatures and chords are parodies/interpretations of the original songs. You may use it for private study, scholarship, research or language learning purposes only
© 2014 AZChords.com Contact us | Privacy policy | DMCA | Add/correct tabs | Request tabs | Top 50 tabs