>
 >
Lullaby In Winter

Lullaby In Winter Guitar Tabs

Green Carnation - Lullaby In Winter chords, tabs, tablatures, lyrics

Guitar lessons | Add/correct | Request | Top 50 tabs Artists:  A B C D E F G H I J K L M N O P Q R S T U V W X Y Z 0-9

Lullaby In Winter Guitar Tabs – Green Carnation

CD, Sheet music, Poster

Do you like Lullaby In Winter? Share with your friends now
Tabs

Performed By: Green Carnation
Lyrics Written By: Kjetil Nordhus
Music Written By: Tchort


D-Tuning (D G C F A d) Low to High

Chords used in order of appearence: 
(Low to High)

Am   | x 0 2 2 1 0

G    | 3 2 0 0 0 0

F    | 1 3 3 2 1 1

NOTE: 
G (barre) chord shape is formed during Intro (3 5 5 4 3 3) Low to High


Intro (0:00)

  Am
|------------------------------------------------------------0--------|
|----------1---------------1---------------1-------------1-----1------|
|------2-----2---2-----2-----2---2-----2-----2---2-----2---2-----2-2--|
|----2---2-----2-----2---2-----2-----2---2-----2-----2----------------|
|--0---------------0---------------0----------------------------------|
|---------------------------------------------------------------------|


  Am
|---------------------------------------------------------------------|
|----------1---------------1---------------1---------------1----------|
|------2-----2---2-----2-----2---2-----2-----2---2-----2-----2---2----|
|----2---2-----2-----2---2-----2-----2---2-----2-----2---2-----2------|
|--0---------------0---------------0---------------0------------------|
|---------------------------------------------------------------------|

(Lead Part under picking)
|--------------------------|
|--------------------------|
|--5--4--5--7--5p4p0-------|
|---------------------7~~--|
|--------------------------|
|--------------------------|


  Am               F                               G
|--------------------------1---------------1---------------3----------|
|----------1-0---------1-----1---1-----1-----1---1-----3-----3---3----|
|------2-------2-0---2---2-----2-----2---2-----2-----4---4-----4------|
|----2---2---------3---------------3---------------5------------------|
|--0------------------------------------------------------------------|
|---------------------------------------------------------------------|

(Lead Parts under picking)
|-------------------------------------------------------|
|-------------------------------------------------------|
|--5-4-5-7-5p4p0-------------------2-4-5-4-4p2----------|
|------------------3~~--------------------------0--5~~--|
|-------------------------------------------------------|
|-------------------------------------------------------|


   G               Am
|----------3------------------------0----------------------------------|
|------3-----3---3---------1--------1----------------------------------|
|----4---4-----4-------2-----2---2--2----------------------------------|
|--5-----------------2---2-----2----2----------------------------------|
|------------------0----------------0----------------------------------|
|-----------------------------------x----------------------------------|
                                  
(Lead Part under picking)
|---------------------|
|---------------------|
|--5-5-4-5-4p2--------|
|---------------------|
|------------------0--|
|---------------3-----|


Verse 1 (0:28)

   Am               
|---------------------------------------------------------------------|
|----------1---------------1---------------1---------------1----------|
|------2-----2---2-----2-----2---2-----2-----2---2-----2-----2---2----|
|----2---2-----2-----2---2-----2-----2---2-----2-----2---2-----2------|
|--0---------------0---------------0---------------0------------------|
|---------------------------------------------------------------------|
           When tomorrow comes...

   F                               Am
|----------1---------------1------------------------------------------|
|------1-----1---1-----1-----1---1---------1---------------1----------|
|----2---2-----2-----2---2-----2-------2-----2---2-----2-----2---2----|
|--3---------------3-----------------2---2-----2-----2---2-----2------|
|----------------------------------0---------------0------------------|
|---------------------------------------------------------------------|
           Hear the lullaby... 

   Am                              F               G        
|------------------------------------------1---------------3----------|
|----------1---------------1-----------1-----1---1-----3-----3---3----|
|------2-----2---2-----2-----2---2---2---2-----2-----4---4-----4------|
|----2---2-----2-----2---2-----2---3---------------5------------------|
|--0---------------0--------------------------------------------------|
|---------------------------------------------------------------------|
                                   Hear the lullaby...

   Am
|-------------------0--|
|----------1--------1--|
|------2-----2---2--2--|
|----2---2-----2----2--|
|--0----------------0--|
|-------------------x--|


(0:55)
(Repeat Intro Part)


Verse 2 (1:23)
  
   Am               
|---------------------------------------------------------------------|
|----------1---------------1---------------1---------------1----------|
|------2-----2---2-----2-----2---2-----2-----2---2-----2-----2---2----|
|----2---2-----2-----2---2-----2-----2---2-----2-----2---2-----2------|
|--0---------------0---------------0---------------0------------------|
|---------------------------------------------------------------------|
           All will be soft and warm...

   F                               Am
|----------1---------------1------------------------------------------|
|------1-----1---1-----1-----1---1---------1---------------1----------|
|----2---2-----2-----2---2-----2-------2-----2---2-----2-----2---2----|
|--3---------------3-----------------2---2-----2-----2---2-----2------|
|----------------------------------0---------------0------------------|
|---------------------------------------------------------------------|
           Hear the lullaby... 

   Am                              F               G        
|------------------------------------------1---------------3----------|
|----------1---------------1-----------1-----1---1-----3-----3---3----|
|------2-----2---2-----2-----2---2---2---2-----2-----4---4-----4------|
|----2---2-----2-----2---2-----2---3---------------5------------------|
|--0---------------0--------------------------------------------------|
|---------------------------------------------------------------------|
                                   Hear the lullaby...

   Am
|-------------------0--|
|----------1--------1--|
|------2-----2---2--2--|
|----2---2-----2----2--|
|--0----------------0--|
|-------------------x--|


(1:50)
(Repeat Intro Part, except do not play final Am
 Instead, play):


|---------------------------------------------------|
|----------1---------------1---------------1--------|
|------2-----2---2-----2-----2---2-----2-----2---2--|
|----2---2-----2-----2---2-----2-----2---2-----2----|
|--0---------------0---------------0----------------|
|---------------------------------------------------|


(2:23)

  |----------1---------------3----------|
  |------1-----1---1-----3-----3---3----|
  |----2---2-----2-----4---4-----4------|
  |--3---------------5------------------|
  |-------------------------------------|
  |-------------------------------------|
Can you recall...

(Lead Part under picking)
|--------7-7-7-7-7-7-9-9-9-9-9-9-9-9--|
|----10-------------------------------|
|-------------------------------------|
|-------------------------------------|
|-------------------------------------|
|-------------------------------------|


|---------------------------------------------------------------------|
|----------1---------------1---------------1---------------1----------|
|------2-----2---2-----2-----2---2-----2-----2---2-----2-----2---2----|
|----2---2-----2-----2---2-----2-----2---2-----2-----2---2-----2------|
|--0---------------0---------------0---------------0------------------|
|---------------------------------------------------------------------|
..light

(Repeat once)


  |----------1---------------3---------------1---------------3--------|
  |------1-----1---1-----3-----3---3-----1-----1---1-----3-----3---3--|
  |----2---2-----2-----4---4-----4-----2---2-----2-----4---4-----4----|
  |--3---------------5---------------3---------------5----------------|
  |-------------------------------------------------------------------|
  |-------------------------------------------------------------------|
Can you recall...                Can you recall...


(2:52)
|-------|
|-------|
|-------|
|--5/7--|  x11
|--5/7--|
|--3/5--|


(3:14)
|-------------------------------------------|
|-------------------------------------------|
|-------------------------------------------|
|----------------------------------5h7-7h5--|
|--0-0-0-0-0-0-0-0-0-0-0-0-0-5h7p5----------|
|-------------------------------------------|
   . . . . . . . . . . . . .           

(Repeat until 3:44)


(3:44)
 
 Guitar 1 (Part 1)
|---------------------------------------------------------------------|
|---------------------------------------------------------------------|
|---------------------------------------------------------------------|
|--10--10--10--9--9--9--12--12--12--10--10--10------------------------|
|---------------------------------------------------------------------|
|---------------------------------------------------------------------|

 Guitar 1 (Part 2)
|---------------------------------------------------------------------|
|---------------------------------------------------------------------|
|---------------------------------------------------------------------|
|--10--10--10--12--12--12--15--15--15--14--14--14---------------------|
|---------------------------------------------------------------------|
|---------------------------------------------------------------------|

Part 1 x2
Part 2 x2
Part 1 x2


 Guitar 2
|--------------------------|
|--------------------------|
|--------------------------|
|--------------------------|  x6
|--12--12--12--10--10--10--|
|--------------------------|

 
 Guitar 3 (in at 3:58)
|-------------------------------------------------------------------
|-------------------------------------------------------------------
|-------------------------------------------------------------------
|--10-10-10-10-10-10-10-10-9-9-9-9-9-9-9-9-12-12-12-12-12-12-12-12--
|-------------------------------------------------------------------
|-------------------------------------------------------------------


 ---------------------------|
 ---------------------------|
 ---------------------------|
 --10-10-10-10-10-10-10-10--|
 ---------------------------|
 ---------------------------|

(Play twice, then):

|------------------------------------------------------------------------
|------------------------------------------------------------------------
|------------------------------------------------------------------------
|--14-14-14-14-14-14-14-14-12-12-12-12-12-12-12-12-15-15-15-15-15-15-15--
|------------------------------------------------------------------------
|------------------------------------------------------------------------


 ---------------------------------|
 ---------------------------------|
 ---------------------------------|
 --17-17-14-14-14-14-14-14-14-14--|
 ---------------------------------|
 ---------------------------------|

(Play twice)



(4:25)
(Am progression is played 4 times, then F and G are played)

   Am     *        *     F    G
|---------0--0-0---0--|--1----0--|
|---------1--1-1---1--|--1----0--|
|------2--2--2-2---2--|--2----0--|
|--0h2-2--2--2-2---2--|--3----0--|
|------0--0--0-0-0-0--|--3----2--|
|---------x--x-x---x--|--1----3--|

(For the Am: ALL downstrum, * = played quickly, then muted abruptly
 Strum the F and G normally, as heard on the recording)


(5:12)

              Am               G
I know you're sad because it's winter

                        F
But I can promise you a spring

              Am              G
I know you're cold; I see you shiver

                        F
But I can promise you a spring

           Am        G
Tomorrow's new, tomorrow's warm

                          Am
Remember when you're all alone

              Am              G
I know you're hurt; I feel it in my heart

                        F
But I can promise you a spring

             Am             G
I see you're down; I see it in your eyes

                        F
But I can promise you a Spring


(Repeat Part at 4:25 twice, then play the following under it):

(6:56)
|---------------------------------------------------------------------|
|---------------------------------------------------------------------|
|---------------------------------------------------------------------|
|--10-10-10-10-10-10-10-10-10p9-9-9-9-9-9-9-9/12-12-12-12-12-12-12----|
|---------------------------------------------------------------------|
|---------------------------------------------------------------------|


 ---------------------------|
 ---------------------------|
 ---------------------------|
 --12p10-10-10-10-10-10-10--|
 ---------------------------|
 ---------------------------|

(Play twice)


|---------------------------------------------------------------------
|---------------------------------------------------------------------
|---------------------------------------------------------------------
|--10/14-14-14-14-14-14-14-14p12-12-12-12-12-12-12-12/15-15-15-15-15--
|---------------------------------------------------------------------
|---------------------------------------------------------------------


 ---------------------------------|
 ---------------------------------|
 ---------------------------------|
 --17-17-14-14-14-14-14-14-14-14--|
 ---------------------------------|
 ---------------------------------|

(Play twice, second time do not play 10/)


|--------------------------------------------------------|
|--------------------------------------------------------|
|--------------------------------------------------------|
|--14-14-14-14-14-14-14-14-12-12-12-12-12-12-12-12-14~~--|
|--------------------------------------------------------|
|--------------------------------------------------------|

(Play once, then downstrum Am three times and fadeout)


Outro (7:32)
(Note: This is an approximation. There may be a couple
       of notes missing here, however it sounds good
       to me when compared to the recording)


|------------------------------------------------
|-----------1--0h1p0-----------------------3--5--
|--------2------------2-----------------5--------
|--0--2------------------2--0--------5-----------
|------------------------------3--5--------------
|------------------------------------------------

 ------------------------------------------------------------|
 --------------1--0h1p0--------------------------------------|
 -----------2------------2-----------------------0--2--------|
 --2--0--2------------------2-----------------3--------2-----|
 ------------------------------3--2--------3--------------0--|
 ------------------------------------3--1--------------------|



END





Comments


Popular Green Carnation tabs & chords
As Life Flows By Tabs
Crushed To Dust Tabs
Myron And Cole Tabs
Pile Of Doubt Tabs


Song lyrics



↑ Back to top | Tablatures and chords are parodies/interpretations of the original songs. You may use it for private study, scholarship, research or language learning purposes only
© 2014 AZChords.com Contact us | Privacy policy | DMCA | Add/correct tabs | Request tabs | Top 50 tabs