>
 >
As Life Flows By

As Life Flows By Guitar Tabs

Green Carnation - As Life Flows By chords, tabs, tablatures, lyrics

Guitar lessons | Add/correct | Request | Top 50 tabs Artists:  A B C D E F G H I J K L M N O P Q R S T U V W X Y Z 0-9

As Life Flows By Guitar Tabs – Green Carnation

CD, Sheet music, Poster

Do you like As Life Flows By? Share with your friends now
Tabs
:green carnation


Legend

(x) Optional
// Tremelo(?) Pick
s slide
. PM

Intro/Chorus Part A
Guitar 1
e5p0-7p0-9p0-10p0-9p0-10p0-7p0-5p0    e--------------(7p0)------(7p0)--------|
A---------------------------------    A5p0-7p0-10p0-(11p0)10p0-(11p0)7p0-5p0-|
G---------------------------------    G--------------------------------------|
D--------------------------------- or D--------------------------------------|
A---------------------------------    A--------------------------------------|
E---------------------------------    E--------------------------------------|
                           (Choose between e7p0 and A11p0, whatever suits you)
Guitar 2
e-----------------|
A-----------------|
G-----------------|
D5----7----4----3-|
A5----7----4----3-|
E3----5----2----1-| (x1)
I got no real idea about the chorus but sounds like
Chorus Part A

Verse - No Guitar

Guitar 2
e-----------------|
A-----------------|
G-----------------|
D5----7----4----3-|
A5----7----4----3-|
E3----5----2----1-| (x1)

Guitar 1
e5p0-7p0-9p0-10p0-9p0-10p0-7p0-5p0    e------------(7p0)----(7p0)--------|
A---------------------------------    A5p0-7p0-9p0(10p0)9p0(10p0)7p0-5p0-|
G---------------------------------    G----------------------------------|
D--------------------------------- or D----------------------------------|
A---------------------------------    A----------------------------------|
E---------------------------------    E----------------------------------|
                           (Choose between e7p0 and A10p0, whatever suits you)
Chorus Part B (x2)
Guitar 1
e--------------------    e--------------------|
A--------------------    A--------------------|
G--------------------    G-5-5-----5---5---55-|
D-5-5-----5---5---55-    D-5-5-----5---5---55-|
A-5-5-----5---5---55-    A-3-3-----3---3---33-|
E-3-3-3-3-3-3-3-3-33- or E----(0-0)-(0)-(0)---|
                             (or A3)
e-------------------     e--------------------|
A-------------------     A--------------------|
G-------------------     G-7-7-----7---7---77-|
D-7-7-----7---7---77-    D-7-7-----7---7---77-|
A-7-7-----7---7---77-    A-5-5-----5---5---55-|
E-5-5-5-5-5-5-5-5-55- or E----(0-0)-(0)-(0)---|
                             (or A5)
e--------------------    e---------------------|
A--------------------    A---------------------|
G--------------------    G-4-------------------|
D-4------------------    D-4-------------------|
A-4------------------ or A-2-------------------|
E-2------------------    E---------------------|

e--------------------    e--------------------|
A--------------------    A--------------------|
G--------------------    G-3------------------|
D-3------------------    D-3------------------|
A-3------------------ or A-1------------------|
E-1------------------    E--------------------|

Guitar 2
About 4 notes per second
e--------------------|
A--------------------|
G--------------------|
D--------------------|
A--------------------|
E3///////////////////

e--------------------|
A--------------------|
G--------------------|
D--------------------|
A--------------------|
E5///////////////////
e--------------------|
A--------------------|
G--------------------|
D--------------------|
A--------------------|
E2///////////////////
e--------------------|
A--------------------|
G--------------------|
D--------------------|
A--------------------|
E1///////////////////

Verse - No Guitar

Solo Part A x2
e--------------------------------|
A--------------------------------|
G--------------------------------|
D--------------------------------|
A3s6s3s6-7-5s8s5s8-9-10s12s10s12-|
E--(x2)------(x2)-------(x2)-----|

Solo Part B x2
Play Very fast
e--------------------------------------------------------------|
A--------------------------------------------------------------|
G--------------------------------------------------------------|
D--------------------------------------------------------------|
A(3//)5//3//5//3//5//3//5/6/7//5//7//5//7//5//7/8/9//7//9//7//9//7//
E--------------------------------------------------------------
  .   .  .  .  .  .  .  . . .  .  .  .  .  .  . .  .  .  .  .|Mid-light P.M.
(approx 4,4,4,4,4,4,2,2 in each x//x//x//x//x//x//x/x/)

Chorus A then B then Fade 355xxx





Comments


Popular Green Carnation tabs & chords
Crushed To Dust Tabs
Lullaby In Winter Tabs
Myron And Cole Tabs
Pile Of Doubt Tabs


Song lyrics



↑ Back to top | Tablatures and chords are parodies/interpretations of the original songs. You may use it for private study, scholarship, research or language learning purposes only
© 2014 AZChords.com Contact us | Privacy policy | DMCA | Add/correct tabs | Request tabs | Top 50 tabs