>
 >
My Heart Was A Lonely Hunter

My Heart Was A Lonely Hunter Guitar Tabs

Grayson Capps - My Heart Was A Lonely Hunter chords, tabs, tablatures, lyrics

Guitar lessons | Add/correct | Request | Top 50 tabs Artists:  A B C D E F G H I J K L M N O P Q R S T U V W X Y Z 0-9

My Heart Was A Lonely Hunter Guitar Tabs – Grayson Capps

CD, Sheet music, Poster

Do you like My Heart Was A Lonely Hunter? Share with your friends now
Tabs
    E-A-D-G-B-e
E = 0-2-2-1-0-0
A = x-0-2-2-2-0
B = x-4-2-2-2-4


Here are all the chords Grayson uses in this song.

=============================================================================

 b = bend
 h = hammer on
 p = pull off
 / = slide up
 \ = slide down
 ()= Ghost note



INTRO:
 
   (E)                     B                        A 
e|-----------------------|------------------------|-------------------------|
B|-----------------------|------------------------|--------3~~--------------|
G|------------4--4h6p4---|-----------4------------|----2/4-----4-2----------|
D|-----2--4/6----------6-|-4-----4h6---4----4h6---|-2--------------2------2-|
A|-2h4-------------------|----------------------4-|-------------------2h4---|
E|-----------------------|------------------------|-------------------------|

   E
e|-------------------------------|-
B|-----------5~~-----------------|-
G|---------------~4-2------------|-
D|-(2)-(4)/6----------------2-2--|-
A|----------------------2h4------|-
E|-------------------------------|-

VERSE-RIFFS: 

   (E)                     B                        A 
e|-----------------------|------------------------|-------------------------|
B|-----------------------|------------------------|--------3~~--------------|
G|------------4--4h6p4---|-----------4------------|----2/4-----4-2----------|
D|-----2--4/6----------6-|-4-----4h6---4----4h6---|-2--------------2------2-|
A|-2h4-------------------|----------------------4-|-------------------2h4---|
E|-----------------------|------------------------|-------------------------|

   E
e|------------------------------|-
B|-----------5~~----------------|-
G|---------------~--------------|-
D|-(2)-(4)/6---------2------2-2-|-
A|----------------------2h4-----|-
E|---------------3b-------------|-




VERSE 1:

 (E)              B             A               E
Yesterday I had a dream I could fly through the sky
 (E)                 B              A                E
Then I woke up in a sweat, not dead yet but on the ground.
           B                    E
I'm up in Johnson City, Tennessee.
  B               E     
Looking for the wind in me
       B                   E
Lord fly me over Pontchartrain 
            B            A               E
back to the land of sugarcane and summer-rain


    (E)   B        A                 E
         Never____more____ shall we part
     (E)   B        A                 E
         Never____more____ shall we part

VERSE 2:

A little girl was early told
that life is time and time is gold
She took a little every day
till it went away and she was old
         B                       E
And she cried 'cause her gold was gone
         B                     E
And she cried for she was all alone
        B                     E
And I'm hunting with a lonely heart,
        B                  A
crying nevermore shall we part
          E
shall we part

     (E)   B        A                 E
         Never____more____ shall we part
     (E)   B        A                 E
         Never____more____ shall we part

SOLO (m/ intro riffs):

B | A | E | 

VERSE 3:

And all those words that I said
gently bled from my mouth
And I'm ready too embrace this place
where I belong

I'm afraid but I need to look
If I don't I'm gonna fly
And I'm calling to you in the dark
Just a hunter with a lonely heart
A lonely heart


     (E)   B        A                 E
         Never____more____ shall we part
     (E)   B        A                 E
         Never____more____ shall we part


     (E)   B        A                 E
         Never____more____ shall we part
     (E)   B        A                 E
         Never____more____ shall we part

   (INTRO-RIFFS):

     (E) | B | A | E | 

     (E) | B | A | E | 

     (E) | B | A | E | 





Comments


Popular Grayson Capps tabs & chords
Arrowhead Chords
Graveyard Chords
Psychic Channel Blues Chords
Wail And Ride Chords
A Love Song For Bobby Long Tabs
Washboard Lisa Tabs
Graveyard Ukulele
Psychic Channel Blues Ukulele


Song lyrics



↑ Back to top | Tablatures and chords are parodies/interpretations of the original songs. You may use it for private study, scholarship, research or language learning purposes only
© 2014 AZChords.com Contact us | Privacy policy | DMCA | Add/correct tabs | Request tabs | Top 50 tabs