>
 >
Timeless

Timeless Guitar Tabs

Graveworm - Timeless chords, tabs, tablatures, lyrics

Guitar lessons | Add/correct | Request | Top 50 tabs Artists:  A B C D E F G H I J K L M N O P Q R S T U V W X Y Z 0-9

Timeless Guitar Tabs – Graveworm

CD, Sheet music, Poster

Do you like Timeless? Share with your friends now
Tabs
12.21.09

        I bought this cd when it first came out years ago. I just found it 
in a pile of my crap. Since it's been awhile since my last contribution,  I 
thought I'd tab this song. I really don't know their EXACT tuning, but drop B 


Tunning: B-F#-B-E-G#-C# (low 2 High)

| /  slide up
| \  slide down
| h  hammer-on
| p  pull-off
| ~  vibrato
| +  harmonic
| x  Mute note







intro:
Organ/piano thingy 


0:10

   |guitars 1n2
c#||------------------------------------------||
G#||------------------------------------------||
 E||*----------------------------------------*||
 B||-------1------5-(5)--------1----5-(5)-----||
F#||*------1----0-5-(5)--------1----5-(5)----*||
 B||---0-0-1----0-5-(5)------0-1----5-(5)-----||x2
PM||   . .                   .



Pre-Verse

   |guitars 1n2
c#||---------------------------------------------------||
G#||---------------------------------------------------||
 E||---------------------------------------------------||
 B||-------1-1-0--0------0--0------0--0------0--0-0----||
F#||-------1-1-0--0------0--0------0--0------0--0-0----||
 B||---0-0-1-1-0--0------0--0------0--0------0--0-0----||
PM||   . .
                   "wait"    

Verse

   |guitars 1n2
c#||--------------------------------------------------------------------------------||
G#||--------------------------------------------------------------------------------||
 E||--------------------------------------------------------------------------------||
 B||---0--0------0--0------0--0------0--0-0-----1--1----------1-0--0----------------||
F#||---0--0------0--0------0--0------0--0-0-----1--1----------1-0--0----------------||
 B||---0--0------0--0------0--0------0--0-0-----1--1------0-0-1-0--0-----0-0---0-0--||
PM||                                                      . .            . .   . .


  |guitars 1n2
c#||-----------------------------------------------||
G#||-----------------------------------------------||
 E||-----------------------------------------------||
 B||---0--0------0--0-0------1--1------3--3---\\\--||
F#||---0--0------0--0-0------1--1------3--3---\\\--||
 B||---0--0------0--0-0------1--1------3--3---\\\--||
PM||                                                                        




Chorus 
 
   |guitars 1n2
c#||---------------------------------------------------------||
G#||---------------------------------------------------------||
 E||*--------------------------------------------------------||
 B||--5------5------5------5------1------1------1------1-----||
F#||*-5------5------5------5------1------1------1------1-----||
 B||--5--5-5-5------5--5-5-5------1--1-1-1------1--1-1-1-----||
PM||     . .           . .           . .           . .  
   |
   |lead guitar medly 
   |------------------------------------------------------------||
   |------------------------------------------------------------||
   |*-----------------------------------------------------------||
   |------------------------------------------------------------||
   |*-5~----6-5-3-3h5~----6-5-3-3h5~----6-5-3-3h5~----6-5-3-3h--||
   |------------------------------------------------------------||
   |            .             .             .


   |guitars 1n2
c#||----------------------------------------------------------------------||
G#||----------------------------------------------------------------------||
 E||---------------------------------------------------------------------*||
 B||--8------8------8------8------0-----0-----0-0------3-----3-----3-3----||
F#||--8------8------8------8------0-----0-----0-0------3-----3-----3-3---*||
 B||--8--8-8-8------8--8-8-8------0-0-0-0-0-0-0-0------3-3-3-3-3-3-3-3----||
PM||     . .           . .          . .   . .            . .   . .
   |
   |lead guitar medly 
   |----------------------------------------------------------------------||
   |----------------------------------------------------------------------||
   |---------------------------------------------------------------------*||
   |------------------------------0-----0-----0-0------3-----3-----3-3----||
   |--5~----6-5-3-3h5~----6-5-3---0-----0-----0-0------3-----3-----3-3---*||
   |------------------------------0-0-0-0-0-0-0-0------3-3-3-3-3-3-3-3----||
   |            .                   . .   . .            . .   . .                     



Post Chorus

   |guitars 1n2
c#||--------------------------------------------------------------||
G#||--------------------------------------------------------------||
 E||--------------------------------------------------------------||
 B||--------------------------------------------------------1--1--||
F#||--5-----5-----5-----5-----5---5---5-----5-----5---------1--1--||
 B||--5-5-5-5-5-5-5-5-5-5-5-5-5-5-5-5-5-5-5-5-5-5-5-5-0-0-0-1--1--||X4
PM||    . .   . .   . .   . .   .   .   . .   . .   . . . .


Verse 2

   |guitars 1n2
c#||------------------------------------------------------------------------------------||
G#||------------------------------------------------------------------------------------||
 E||------------------------------------------------------------------------------------||
 B||---0--0--------------------0--0------0--0-0-----1--1----------1-0--0----------------||
F#||---0--0--------------------0--0------0--0-0-----1--1----------1-0--0----------------||
 B||---0--0-------0-0--0-0-----0--0------0--0-0-----1--1------0-0-1-0--0-----0-0---0-0--||
PM||              . .  . .                                    . .            . .   . .



   |guitars 1n2
c#||-------------------------------------------------------||
G#||-------------------------------------------------------||
 E||-------------------------------------------------------||
 B||---0--0------0--0-0------1--1------3--3------x-x--x-x--||
F#||---0--0------0--0-0------1--1------3--3------x-x--x-x--||
 B||---0--0------0--0-0------1--1------3--3------x-x--x-x--||
PM||   


Chorus 
 
   |guitars 1n2
c#||---------------------------------------------------------||
G#||---------------------------------------------------------||
 E||*--------------------------------------------------------||
 B||--5------5------5------5------1------1------1------1-----||
F#||*-5------5------5------5------1------1------1------1-----||
 B||--5--5-5-5------5--5-5-5------1--1-1-1------1--1-1-1-----||
PM||     . .           . .           . .           . .  
   |
   |lead guitar medly 
   |------------------------------------------------------------||
   |------------------------------------------------------------||
   |*-----------------------------------------------------------||
   |------------------------------------------------------------||
   |*-5~----6-5-3-3h5~----6-5-3-3h5~----6-5-3-3h5~----6-5-3-3h--||
   |------------------------------------------------------------||
   |            .             .             .


   |guitars 1n2
c#||----------------------------------------------------------------------||
G#||----------------------------------------------------------------------||
 E||---------------------------------------------------------------------*||
 B||--8------8------8------8------0-----0-----0-0------3-----3-----3-3----||
F#||--8------8------8------8------0-----0-----0-0------3-----3-----3-3---*||
 B||--8--8-8-8------8--8-8-8------0-0-0-0-0-0-0-0------3-3-3-3-3-3-3-3----||X2
PM||     . .           . .          . .   . .            . .   . .
   |
   |lead guitar medly 
   |----------------------------------------------------------------------||
   |----------------------------------------------------------------------||
   |---------------------------------------------------------------------*||
   |------------------------------0-----0-----0-0------3-----3-----3-3----||
   |--5~----6-5-3-3h5~----6-5-3---0-----0-----0-0------3-----3-----3-3---*||
   |------------------------------0-0-0-0-0-0-0-0------3-3-3-3-3-3-3-3----||X2
   |            .                   . .   . .            . .   . .                     




"give me your faith"




Chorus 
 
   |guitars 1n2
c#||---------------------------------------------------------||
G#||---------------------------------------------------------||
 E||*--------------------------------------------------------||
 B||--5------5------5------5------1------1------1------1-----||
F#||*-5------5------5------5------1------1------1------1-----||
 B||--5--5-5-5------5--5-5-5------1--1-1-1------1--1-1-1-----||
PM||     . .           . .           . .           . .  
   |
   |lead guitar medly 
   |------------------------------------------------------------||
   |------------------------------------------------------------||
   |*-----------------------------------------------------------||
   |------------------------------------------------------------||
   |*-5~----6-5-3-3h5~----6-5-3-3h5~----6-5-3-3h5~----6-5-3-3h--||
   |------------------------------------------------------------||
   |            .             .             .


   |guitars 1n2
c#||----------------------------------------------------------------------||
G#||----------------------------------------------------------------------||
 E||---------------------------------------------------------------------*||
 B||--8------8------8------8------0-----0-----0-0------3-----3-----3-3----||
F#||--8------8------8------8------0-----0-----0-0------3-----3-----3-3---*||
 B||--8--8-8-8------8--8-8-8------0-0-0-0-0-0-0-0------3-3-3-3-3-3-3-3----||X2
PM||     . .           . .          . .   . .            . .   . .
   |
   |lead guitar medly 
   |----------------------------------------------------------------------||
   |----------------------------------------------------------------------||
   |---------------------------------------------------------------------*||
   |------------------------------0-----0-----0-0------3-----3-----3-3----||
   |--5~----6-5-3-3h5~----6-5-3---0-----0-----0-0------3-----3-----3-3---*||
   |------------------------------0-0-0-0-0-0-0-0------3-3-3-3-3-3-3-3----||X2
   |            .                   . .   . .            . .   . .                     


Conclusion 

   |guitars 1n2
c#||----------||
G#||----------||
 E||----------||
 B||--5-------||
F#||--5-------||
 B||--5-------||End.





Comments


Popular Graveworm tabs & chords
Abandoned By Heaven Bass Tabs
Demonic Dreams Tabs
Legions Unleashed Intro Tabs
Threnody Tabs
Threnody Intro Tabs


Song lyrics



↑ Back to top | Tablatures and chords are parodies/interpretations of the original songs. You may use it for private study, scholarship, research or language learning purposes only
© 2014 AZChords.com Contact us | Privacy policy | DMCA | Add/correct tabs | Request tabs | Top 50 tabs