>
 >
Demonic Dreams

Demonic Dreams Guitar Tabs

Graveworm - Demonic Dreams chords, tabs, tablatures, lyrics

Guitar lessons | Add/correct | Request | Top 50 tabs Artists:  A B C D E F G H I J K L M N O P Q R S T U V W X Y Z 0-9

Demonic Dreams Guitar Tabs – Graveworm

CD, Sheet music, Poster

Do you like Demonic Dreams? Share with your friends now
Tabs
-------------------------------------------------------------------------------
-------------------------------------------------------------------------------


Tuning: Drop D

| PM  Palm Mute
| h   hammer-on
===============================================================================

Both Guitars
|----------------------------------|
|----------------------------------|
|----------------------------------|
|----------------------------------|
|-2----------5-------------2-------|
|-0----------3-------------2-------| x5

Both Guitars
|-------------------------------------------------------------|
|-------------------------------------------------------------|
|-------------------------------------------------------------|
|-------------------------------------------------------------|
|-2----------5-------------2-------------2--------------------|
|-0----------3-------------2-------------2--------------------|

Guitar 1
|----------------------------------|
|----------------------------------|
|----------------------------------|
|----------------------------------|
|-2----------5-------------2-------|
|-0----------3-------------2-------| x4

Guitar 2
|----------------------------------|
|----------------------------------|
|----------------------------------|
|----9-7-9---5--9-7-9---5--4-------|
|-7--------------------------------|
|----------------------------------| x4

Both Guitars
|-----------------------------------------------------------------------------------------|
|-----------------------------------------------------------------------------------------|
|-----------------------------------------------------------------------------------------|
||-------------------------------------------PM------------------------------------------||
|-5-5-5-5-5-5-5-5-5-5-5-5-5-5-5-5-5-5-5-5-5-5-5-5-7-7-7-7-9-9-9-9-9-9-9-9-9-9-9-9-9-9-9-9-|
|-3-3-3-3-3-3-3-3-3-3-3-3-3-3-3-3-3-3-3-3-3-3-3-3-5-5-5-5-7-7-7-7-7-7-7-7-7-7-7-7-7-7-7-7-|

Both Guitars
|-----------------------------------------------------------------------------------------|
|-----------------------------------------------------------------------------------------|
|-----------------------------------------------------------------------------------------|
||-------------------------------------------PM------------------------------------------||
|-5-5-5-5-5-5-5-5-5-5-5-5-5-5-5-5-5-5-5-5-5-5-5-5-7-7-7-7-4-4-4-4-4-4-4-4-4-4-4-4-4-4-4-4-|
|-3-3-3-3-3-3-3-3-3-3-3-3-3-3-3-3-3-3-3-3-3-3-3-3-5-5-5-5-2-2-2-2-2-2-2-2-2-2-2-2-2-2-2-2-|

Both Guitars
|-------------------------------------------------------------------------------------|
|-------------------------------------------------------------------------------------|
|-------------------------------------------------------------------------------------|
|-9-------------------9--7--5-------------5--4--2---------2-2-2--2--2-9----------9--9-|
|-9-------------------9--7--5-------------5--4--2---------2-2-2--2--2-9----------9--9-|
|-------------------------------------------------------------------------------------|

Both Guitars
|-------------------------------------------------------------------------------------|
|-------------------------------------------------------------------------------------|
|-------------------------------------------------------------------------------------|
|-9-------------------9--7--5-------------5--4--2---------2-2-2--2--2-9----------9--9-|
|-9-------------------9--7--5-------------5--4--2---------2-2-2--2--2-9----------9--9-|
|-------------------------------------------------------------------------------------|

Both Guitars
|--------------------------------------------------------------------------------------|
|--------------------------------------------------------------------------------------|
|-----------------------------------------9-11-12--11-12-11----------------------------|
|-9-11-12--11-12-9----9-11-12--11-12-9--------------------------9-11-12----11----9-----|
|--------------------------------------------------------------------------------------|
|--------------------------------------------------------------------------------------|

Guitar 1
|---------------------------------------------------------------------------------|
|---------------------------------------------------------------------------------|
|-7-6-7-----7-6-7-6-----6-4-6-----6-4-6-7-----9-7-9-----9-9-9-7-------------------|
|---------------------------------------------------------------------------------|
|---------------------------------------------------------------------------------|
|---------------------------------------------------------------------------------|

Guitar 2
|---------------------------------------------------------------------------------|
|-7-5-7-----7-5-7-5-----5-3-5-----5-3-5-7-----8-7-8-----8-8-8-7--10-8-7-5--8-7----|
|---------------------------------------------------------------------------------|
|---------------------------------------------------------------------------------|
|---------------------------------------------------------------------------------|
|---------------------------------------------------------------------------------|

Guitar 1
|---------------------------------------------------------------------------------|
|---------------------------------------------------------------------------------|
|-7-6-7-----7-6-7-6-----6-4-6-----6-4-6-7-----9-7-9-----9-9-9-7-------6-----4-----|
|---------------------------------------------------------------------------------|
|---------------------------------------------------------------------------------|
|---------------------------------------------------------------------------------|

Guitar 2
|---------------------------------------------------------------------------------|
|-7-5-7-----7-5-7-5-----5-3-5-----5-3-5-7-----8-7-8-----8-8-8-7---7h8h7-5---7-----|
|---------------------------------------------------------------------------------|
|---------------------------------------------------------------------------------|
|---------------------------------------------------------------------------------|
|---------------------------------------------------------------------------------|

Both Guitars
|--------------------------------------------------|
|--------------------------------------------------|
|--------------------------------------------------|
|--------------------------------------------------|
|-5-----------9-----------7-----------4------------|
|-3-----------7-----------5-----------2------------|

Both Guitars
|-------------------------------------------------------------------------|
|-------------------------------------------------------------------------|
|-------------------------------------------------------------------------|
|-------------------------------------------------------------------------|
|-5-----------9-----------7-----------4------------2----------------------|
|-3-----------7-----------5-----------2------------0----------------------|

Both Guitars
|---------------|
|---------------|
|---------------|
|---------------|
|-5-2-----------|
|-3-2-----------|

Both Guitars
|----------------------------------|
|----------------------------------|
|----------------------------------|
|----------------------------------|
|-2----------5-------------2-------|
|-0----------3-------------2-------| x3

Both Guitars
|-----------------------------------------------------------------|
|-----------------------------------------------------------------|
|-----------------------------------------------------------------|
||----------------------------PM---------------------------------||
|-9-9-9-9-9-9-9-9-9-9-9-9-9-9-9-9-5-5-5-5-5-5-5-5-5-5-5-5-5-5-5-5-|
|-7-7-7-7-7-7-7-7-7-7-7-7-7-7-7-7-3-3-3-3-3-3-3-3-3-3-3-3-3-3-3-3-|

Both Guitars
|-----------------------------------------------------------------|
|-----------------------------------------------------------------|
||---------------------------PM----------------------------------||
|-7-7-7-7-7-7-7-7-7-7-7-7-7-7-7-7---------------------------------|
|-5-5-5-5-5-5-5-5-5-5-5-5-5-5-5-5-4-4-4-4-4-4-4-4-4-4-4-4-4-4-4-4-|
|---------------------------------2-2-2-2-2-2-2-2-2-2-2-2-2-2-2-2-|

Both Guitars
|-----------------------------------------------------------------|
|-----------------------------------------------------------------|
|-----------------------------------------------------------------|
||----------------------------PM---------------------------------||
|-9-9-9-9-9-9-9-9-9-9-9-9-9-9-9-9-5-5-5-5-5-5-5-5-5-5-5-5-5-5-5-5-|
|-7-7-7-7-7-7-7-7-7-7-7-7-7-7-7-7-3-3-3-3-3-3-3-3-3-3-3-3-3-3-3-3-|

Both Guitars
|-----------------------------------------------------------------|
|-----------------------------------------------------------------|
||---------------------------PM----------------------------------||
|-7-7-7-7-7-7-7-7-7-7-7-7-7-7-7-7---------------------------------|
|-5-5-5-5-5-5-5-5-5-5-5-5-5-5-5-5-4-4-4-4-4-4-4-4-4-4-4-4-4-4-4-4-|
|---------------------------------2-2-2-2-2-2-2-2-2-2-2-2-2-2-2-2-|

Both Guitars
|-----------------------------------------------------|
|-----------------------------------------------------|
|-----------------------------------------------------|
|-----------------------------------5---------5-----4-|
|-9-9-9-9-9-9-9-9-9-9-9-9-9-5-5-5-5---5-5-5-5---5-5---|
|-7-7-7-7---7-7-7-7---7-7---3-3-3-3---3-3-3-3---3-3---|

Both Guitars
|-----------------------------------------------------|
|-----------------------------------------------------|
|-----------------------------------------------------|
|-7-7-7-7-4-7-7-7-7-4-7-7-4---------2---------2-----4-|
|-5-5-5-5---5-5-5-5---5-5---4-4-4-4---4-4-4-4---4-4---|
|---------------------------2-2-2-2---2-2-2-2---2-2---|

Both Guitars
|-----------------------------------------------------|
|-----------------------------------------------------|
|-----------------------------------------------------|
|-----------------------------------5---------5-----4-|
|-9-9-9-9-9-9-9-9-9-9-9-9-9-5-5-5-5---5-5-5-5---5-5---|
|-7-7-7-7---7-7-7-7---7-7---3-3-3-3---3-3-3-3---3-3---|

Both Guitars
|-----------------------------------------------------|
|-----------------------------------------------------|
|-----------------------------------------------------|
|-7-7-7-7-4-7-7-7-7-4-7-7-4---------2---------2-----4-|
|-5-5-5-5---5-5-5-5---5-5---4-4-4-4---4-4-4-4---4-4---|
|---------------------------2-2-2-2---2-2-2-2---2-2---|

Guitar 1
|---------------------------------------------------------------------------------|
|---------------------------------------------------------------------------------|
|-7-6-7-----7-6-7-6-----6-4-6-----6-4-6-7-----9-7-9-----9-9-4-7-------------------|
|---------------------------------------------------------------------------------|
|---------------------------------------------------------------------------------|
|---------------------------------------------------------------------------------|

Guitar 2
|---------------------------------------------------------------------------------|
|-7-5-7-----7-5-7-5-----5-3-5-----5-3-5-7-----8-7-8-----8-10-8-7--10-8-7-5--8-7---|
|---------------------------------------------------------------------------------|
|---------------------------------------------------------------------------------|
|---------------------------------------------------------------------------------|
|---------------------------------------------------------------------------------|

Guitar 1
|---------------------------------------------------------------------------------|
|---------------------------------------------------------------------------------|
|-7-6-7-----7-6-7-6-----6-4-6-----6-4-6-7-----9-7-9-----9-9-9-7-------6-----4-----|
|---------------------------------------------------------------------------------|
|---------------------------------------------------------------------------------|
|---------------------------------------------------------------------------------|

Guitar 2
|---------------------------------------------------------------------------------|
|-7-5-7-----7-5-7-5-----5-3-5-----5-3-5-7-----8-7-8-----8-8-8-7---7h8h7-5---7-----|
|---------------------------------------------------------------------------------|
|---------------------------------------------------------------------------------|
|---------------------------------------------------------------------------------|
|---------------------------------------------------------------------------------|

Both Guitars
|--------------------------------------------------|
|--------------------------------------------------|
|--------------------------------------------------|
|--------------------------------------------------|
|-5-----------9-----------7-----------4------------|
|-3-----------7-----------5-----------2------------| x2

Both Guitars
|-------------------------------------------------------------------------------------|
|-------------------------------------------------------------------------------------|
|-------------------------------------------------------------------------------------|
|-9-------------------9--7--5-------------5--4--2---------2-2-2--2--2-9----------9--9-|
|-9-------------------9--7--5-------------5--4--2---------2-2-2--2--2-9----------9--9-|
|-------------------------------------------------------------------------------------|

Both Guitars
|-------------------------------------------------------------------------------------|
|-------------------------------------------------------------------------------------|
|-------------------------------------------------------------------------------------|
|-9-------------------9--7--5-------------5--4--2---------2-2-2--2--2-9----------9--9-|
|-9-------------------9--7--5-------------5--4--2---------2-2-2--2--2-9----------9--9-|
|-------------------------------------------------------------------------------------|

Both Guitars
|-------------------------------------------------------------------------------------|
|-------------------------------------------------------------------------------------|
|-------------------------------------------------------------------------------------|
|-9-------------------9--7--5-------------5--4--2---------2-2-2--2--2-9---------------|
|-9-------------------9--7--5-------------5--4--2---------2-2-2--2--2-9---------------|
|-------------------------------------------------------------------------------------|

Both Guitars
|-------------------------------------------------------------------------|
|-------------------------------------------------------------------------|
|-------------------------------------------------------------------------|
|-------------------------------------------------------------------------|
|-9-9-9-9-9-9-9-9-9-9-9-9-9-9-9-9-7-7-7-7-5-5-5-5-5-5-5-5-5-5-5-5-5-5-5-5-|
|-7-7-7-7-7-7-7-7-7-7-7-7-7-7-7-7-5-5-5-5-3-3-3-3-3-3-3-3-3-3-3-3-3-3-3-3-|

Both Guitars
|-------------------------------------------------------------------------|
|-------------------------------------------------------------------------|
|-------------------------------------------------------------------------|
|-------------------------------------------------------------------------|
|-4-4-4-4-2-2-2-2-2-2-2-2-2-2-2-2-2-2-2-2-9-9-9-9-9-9-9-9-9-9-9-9-9-9-9-9-|
|-2-2-2-2-0-0-0-0-0-0-0-0-0-0-0-0-0-0-0-0-7-7-7-7-7-7-7-7-7-7-7-7-7-7-7-7-|

Both Guitars
|-------------------------------------------------------------------------|
|-------------------------------------------------------------------------|
|-------------------------------------------------------------------------|
|-------------------------------------------------------------------------|
|-9-9-9-9-9-9-9-9-9-9-9-9-9-9-9-9-7-7-7-7-5-5-5-5-5-5-5-5-5-5-5-5-5-5-5-5-|
|-7-7-7-7-7-7-7-7-7-7-7-7-7-7-7-7-5-5-5-5-3-3-3-3-3-3-3-3-3-3-3-3-3-3-3-3-|

Both Guitars
|------------------------------------------------------------------------------------|
|------------------------------------------------------------------------------------|
|------------------------------------------------------------------------------------|
|------------------------------------------------------------------------------------|
|-4-4-4-4-2-2-2-2-2-2-2-2-2-2-2-2-2-2-2-2-5-5-5-5-5-5-5-5-7-7-7-7-7-7-7-7-9----------|
|-2-2-2-2-0-0-0-0-0-0-0-0-0-0-0-0-0-0-0-0-3-3-3-3-3-3-3-3-5-5-5-5-5-5-5-5-8----------|





Comments


Popular Graveworm tabs & chords
Abandoned By Heaven Bass Tabs
Legions Unleashed Intro Tabs
Threnody Tabs
Threnody Intro Tabs
Timeless Tabs


Song lyrics



↑ Back to top | Tablatures and chords are parodies/interpretations of the original songs. You may use it for private study, scholarship, research or language learning purposes only
© 2014 AZChords.com Contact us | Privacy policy | DMCA | Add/correct tabs | Request tabs | Top 50 tabs