» » »

Grateful Dead, Hard To Handle Tabs (ver.1)

Artists:  A B C D E F G H I J K L M N O P Q R S T U V W X Y Z # 

Hard To Handle Tabs (ver.1)

Grateful Dead Tabs
 Rating:
4/5 (4 votes)
Hard To Handle lessons Tabs too difficult? Try these video lessons and learn fast
1
                ----------------------------------------
Band-Grateful Dead
Song-Hard To Handle
----------------------------------------
(^) Slide Up  () Slide Down  (h) Hammer On  (p) Pull Off  (b) Bend


Lyrics-
B
I can give you what you want, but you got to come home with me
B
I got a whole lot of good ole loving and I got some in store
B
When I get through throwin' it on to you got to come back for more

F#
Boys and things will come by the dozen
F#
Ain't nothin' but drug store love
B
Pretty little thing let me light your candle
B
Cause mama I'm sure hard to handle, now yes I am.

A  E  B  (4X)

Action speaks louder than words and I'm a man with great experience
I know you got another man, but I can love you better than him
Take my hand, don't be afraid I'm gonna prove every word I say
I'm advertising love for free so won't you place your ad with me?

Boys and things will come by the dozen
Ain't nothin' but drug store love
Pretty little thing let me light your candle

Give it to me baby, I got to have it, some of your love
It's all I need, early in the morning, late in the evening.



Intro                 (B)              (A#  G#m)
E-----------------------------------------------------------|
B--------------9--------------------------------------------|
G--------7--9-----------9--9p7------------------------------|
D---7^9------------------------7----------------------------|
A-----------------------------------------------------------|
E-----------------------------------------------------------|
                      (G#m   F#)           A   E   B
E-----------------7-----------------------------------------|
B--------------9--------------------------------------------|
G--------7--9-----------------------9--9p7------------------|
D---7^9-----------------------------------------------------|
A-----------------------------------------------------------|
E-----------------------------------------------------------|


Verse Riff

E-------7--7--7---------------------------------------------|
B-------7--7--7---9^10--9--7--------------------------------|
G-----------------------------8-----------------------------|
D-----------------------------------------------------------|
A-----------------------------------------------------------|
E----7------------------------------------------------------|

End Of Verse Riff

E-------14--12------12--12--12------------------------------|
B---12----------15--------------15--12----------------------|
G-----------------------------------------------------------|
D-----------------------------------------------------------|
A-----------------------------------------------------------|
E-----------------------------------------------------------|
            
Submit corrections

comments powered by Disqus
↑ Back to top | Grateful Dead Tabs for Hard To Handle. Lyrics for acoustic guitar and electric guitar. 1 Tablatures and chords are parodies/interpretations of the original songs. You may use it for private study, scholarship, research or language learning purposes only