>
 >
Cosmic Charlie

Cosmic Charlie Guitar Tabs

Grateful Dead - Cosmic Charlie chords, tabs, tablatures, lyrics

Guitar lessons | Add/correct | Request | Top 50 tabs Artists:  A B C D E F G H I J K L M N O P Q R S T U V W X Y Z 0-9

Cosmic Charlie Guitar Tabs – Grateful Dead

CD, Sheet music, Poster

Do you like Cosmic Charlie? Share with your friends now
Tabs
Cosmic Charlie ~ Grateful Dead

For Jerry's part use a slide, for Bobby's part use your fingers and beatiful stance.


Intro:


Jerry:
|---/5-5-5-5-5-5-5-5-5-5\3/5-0---|
|--------------------------------|
|--------------------------------|
|--------------------------------|
|--------------------------------|
|--------------------------------|

|---/9-9-9-9-9\7/9-9-x-5-5---|
|----------------------------|
|----------------------------|
|----------------------------|
|----------------------------|
|----------------------------|

|---/9-9-9-9-9-9-9-9-9-9-9-9-/9-9-9-9-9-9-9-9-9-9-9-9---|
|-------------------------------------------------------|
|-------------------------------------------------------|
|-------------------------------------------------------|
|-------------------------------------------------------|
|-------------------------------------------------------|

|---/9-9-9-9/12-12-12-12-12-12-12-12-12-/12-12-12-12-12-12-17\15/17-17---|
|------------------------------------------------------------------------|
|------------------------------------------------------------------------|
|------------------------------------------------------------------------|
|------------------------------------------------------------------------|
|------------------------------------------------------------------------|


Bobby:
|---------5-----------5---------|
|-------5---5-------5---5-------|
|-----6-------6---6-------6-----|
|---7-----------7-----------7---|
|-------------------------------|
|-------------------------------| play twice

|-------------------------------------------|
|--5--5-5h7---5--5-5h7-----5-7---5--5-5h7---|
|--6--6-6h7---6--6-6h7-----6-7---6--6-6h7---|
|-------------------------------------------|
|-------------------------------------------|
|-------------------------------------------| play twice


Verse Riff:

Jerry:(examples)

|---17\15/17-17~~---17-17\15-15---/17~~-------19-----17~---|
|------------------------------------------------/17-------|
|----------------------------------------------------------|
|----------------------------------------------------------|
|----------------------------------------------------------|
|----------------------------------------------------------|

|-------15-17------17----17-17-15---------------17----17-17-17--17~~---|
|---/14---------------17------------/17~-----17----17------------------|
|----------------------------------------------------------------------|
|----------------------------------------------------------------------|
|----------------------------------------------------------------------|
|----------------------------------------------------------------------|

|---5~~~-------17~~~---------------17~~------17-17-17-15\12/15--/17~~---|
|---------5/17--------/15~---13/15-------/15----------------------------|
|-----------------------------------------------------------------------|
|-----------------------------------------------------------------------|
|-----------------------------------------------------------------------|
|-----------------------------------------------------------------------|

|---9-9--/12~~-----------------|
|--------------------2/14~~~---|
|------------------2--/14~~~---|
|----------------2----/14~~~---|
|------------------------------|
|------------------------------|


Bobby
|----------------------------------------------------------|
|---2-2----2-2----2-2---2-----2-2----2-2----2-2----x-0-0---|
|---2-2----2-2----2-2---2-----2-2----2-2----2-2----x-0-0---|
|----------------------------------------------------------|
|----------------------------------------------------------|
|----------------------------------------------------------|

|--------------------------------------------------------------|
|---2-2----2-2----2-2---2-----2-2----0-0-------0-2-------2-2---|
|---2-2----2-2----2-2---2-----2-2----0-0----2--0-2-------2-2---|
|-------------------------------------------0------------------|
|--------------------------------------------------------------|
|--------------------------------------------------------------|



Verse Riff 2(say you'll come back when you can...):


Bobby:

|-------------------------------------------------------|
|---8-7--5--3---2-3---5-----------2--3--2-----0-0-------|
|-----------------------------1/2-----------------2-1---|
|---9-7--5--4---2-4---5-----------2--4--2-----0-0-------|
|---------------------------------------------------2---|
|-------------------------------------------------------|

|----------------------------------------------------------------5--3---|
|---8-7--5--3---2-3---5-----------3-------5--------2-0---------5--------|
|-------------------------------2-------4-------2--2-0-----5h6------4---|
|---9-7--5--4---2-4---5-----3h4-------6--------2-2----------------------|
|-----------------------------------------------------------------------|
|-----------------------------------------------------------------------|


Jerry(it all depends on what's with you-andafter):

|------5-----7---/(12)--12\10-------------17\(15)-15----------|
|---/5-----7-----------------------/17-17---------------------|
|-------------------------------------------------------------|
|-------------------------------------------------------------|
|-------------------------------------------------------------|
|-------------------------------------------------------------|

Verse 3(calliope wail):


Bobby:
|------2--0--3-3-2-------------------------------|
|---2--------------2--3-----6-6---5-5---3--2-0---|
|------2--1--4-4-2-------------------------------|
|---2--------------2--4-----7-7---5-5---4--2-0---|
|------------------------------------------------|
|------------------------------------------------|

|--------------------------------------------------|
|---7-5--7--9---10--12-10-----9----7-7----5--5-4---|
|--------------------------------------------------|
|---7-6--7--9---11--12-11-----9----8-8----6--6-4---|
|--------------------------------------------------|
|--------------------------------------------------|

Jerry(after lyrics)
|---/17-17-17--17-17--17~----17\15/17-17-17---17-17--17--17\15--15\5---|
|----------------------------------------------------------------------|
|----------------------------------------------------------------------|
|----------------------------------------------------------------------|
|----------------------------------------------------------------------|
|----------------------------------------------------------------------|



"calling yooou" part:


Jerry:
|---5-5~--/7~~~------3/5~~~---|
|----------------5-5----------|
|-----------------------------|
|-----------------------------|
|-----------------------------|
|-----------------------------|

|---/9-9---/(12)-12~~-----------17\15/17-17~~~---|
|----------------------/(17)-17------------------|
|------------------------------------------------|
|------------------------------------------------|
|------------------------------------------------|
|------------------------------------------------|

|---/17--17\15/17--17\15/17----------|
|---------------------------/15~~~---|
|------------------------------------|
|------------------------------------|
|------------------------------------|
|------------------------------------|

|------5~---5/9-5~----------5-5~~~---|
|---/5---------------/(5)-5----------|
|------------------------------------|
|------------------------------------|
|------------------------------------|
|------------------------------------|

Bobby:
|-------------------------|
|---2-2---0-0-------0-2---|
|---2-2---0-0---2-2-0-2---|
|---------------0-0-------|
|-------------------------|
|-------------------------|



Solo Verse:

Jerry:
|---/5---5---5---5---5--------/12-12-12-12-12-12-12\10/12-12--12--/5---|
|----------------------------------------------------------------------|
|----------------------------------------------------------------------|
|----------------------------------------------------------------------|
|----------------------------------------------------------------------|
|----------------------------------------------------------------------|

|---/12-12-12-12-12-12-12-12-12-12-12-/12-12-12-12-12-12-12-12-12-12-12~---|
|--------------------------------------------------------------------------|
|--------------------------------------------------------------------------|
|--------------------------------------------------------------------------|
|--------------------------------------------------------------------------|
|--------------------------------------------------------------------------|

|---/12-12-12-12-12-/12-12-12-12-12-/12-12-12-17\15/17-17\15/17-17-17-17---|
|--------------------------------------------------------------------------|
|--------------------------------------------------------------------------|
|--------------------------------------------------------------------------|
|--------------------------------------------------------------------------|
|--------------------------------------------------------------------------|

|---/17~~~-----17~~~--------17~~~--------17--17---17\15--15---/17~~~---|
|----------/17---------/17~---------/17--------------------------------|
|----------------------------------------------------------------------|
|----------------------------------------------------------------------|
|----------------------------------------------------------------------|
|----------------------------------------------------------------------|

|-------17~~~----/12---12--12---/15~~---9\7/9-5~~~---|
|---/17----------------------------------------------|
|----------------------------------------------------|
|----------------------------------------------------|
|----------------------------------------------------|
|----------------------------------------------------|


Bobby
|---5---7-5-5-7--9---10-9-----5-7-5--5-7-9--5-5---3-3---|
|-------------------------------------------------------|
|---6---7-6-6-7--9---11-9-----6-7-6--6-7-9--6-6---4-4---|
|-------------------------------------------------------|
|-------------------------------------------------------|
|-------------------------------------------------------|

|---5---7-5-5-7--9---10-9-----5-5---3-3-3---3-2--3-5-------------|
|----------------------------------------------------------------|
|---6---7-6-6-7--9---11-9-----6-6---4-4-4---4-2--4-6-------------|
|----------------------------------------------------------------|
|----------------------------------------------------------------|
|----------------------------------------------------------------|

|---5-5---3-3-3---3-2--3-5-----7-5---|
|------------------------------------|
|---6-6---4-4-4---4-2--4-6-----7-6---|
|------------------------------------|
|------------------------------------|
|------------------------------------|


Outro:


Bobby:
|-------------------------|
|---2-2---0-0-------0-2---|
|---2-2---0-0---2-2-0-2---|
|---------------0-0-------|
|-------------------------|
|-------------------------|


Acoustic Outro:
|---8/9-9\7--5-5\3--2-2/3--5---|
|------------------------------|
|---8/9-9\7--6-6\4--2-2/4--6---|
|------------------------------|
|------------------------------|
|------------------------------|





Comments


Popular Grateful Dead tabs & chords
Fire On The Moutain Top Bass Tabs
Scarlet Begonias Bass Tabs
Scarlet Begonias 1 Bass Tabs
Eyes Of The World Chords
Here Comes Sunshine Chords
Not Fade Away Chords
Cassidy 1 Tabs
China Cat Sunflower 1 Tabs
Ripple Tabs
Ripple 1 Tabs


Song lyrics



↑ Back to top | Tablatures and chords are parodies/interpretations of the original songs. You may use it for private study, scholarship, research or language learning purposes only
© 2014 AZChords.com Contact us | Privacy policy | DMCA | Add/correct tabs | Request tabs | Top 50 tabs