» » »

Gran Ronde, Wisdom Bass tabs (ver.1)

Artists:  A B C D E F G H I J K L M N O P Q R S T U V W X Y Z # 

Wisdom Bass tabs (ver.1)

Gran Ronde Tabs
 Rating:
4.2/5 (5 votes)
Wisdom lessons Tabs too difficult? Try these video lessons and learn fast
1
                This song is amazing. It's a shame that it's only 2:11. 

(0:08)
G|----------------|----------------|----------------|----------------|
D|----------------|------6---6-6-6-|----------------|----------------|
A|--------------6-|--6-6-----------|--------------6-|--6-6-----------|
E|0-0-0-7---7-7---|----------------|0-0-0-7---7-7---|------4---4-4-4-|


(0:36)
G|----------------|----------------|----------------|----------------|
D|----------------|----------------|----------------|----------------|
A|4-4-4-4-4-4-6-7-|--7-7-7-7-7-7-7-|----------------|--------------2-|
E|----------------|----------------|7---7-7-7-7-7-2-|--2-2-2-2-2-2---|

G|----------------|----------------|----------------|----------------|
D|----------------|----------------|--------------4-|--4-4-4-4-4-4-4-|
A|4-4-4-4-4-4-6-7-|--7-7-7-7-7-7-7-|----------------|----------------|
E|----------------|----------------|7---7-7-7-7-7---|----------------|


(0:50) - Same as (0:08)


(1:19) - Same as (0:36)


Intro Riff Arranged For Bass Guitar:
G|----------------|----------------|----------------|----------------|
D|--6-----------4-|----------------|--6-----------4-|----------------|
A|------6-4---6---|--6-------------|------6-4---6---|--6-------------|
E|----------------|------7-4---7-4-|----------------|------7-4--(2-4)|
            
Submit corrections

comments powered by Disqus
↑ Back to top | Gran Ronde Bass for Wisdom. Lyrics for acoustic guitar and electric guitar. 1 Tablatures and chords are parodies/interpretations of the original songs. You may use it for private study, scholarship, research or language learning purposes only