» » »

Gran Ronde, Set It Off Tabs (ver.1)

Artists:  A B C D E F G H I J K L M N O P Q R S T U V W X Y Z # 

Set It Off Tabs (ver.1)

Gran Ronde Tabs
 Rating:
4.2/5 (5 votes)
Set It Off lessons Tabs too difficult? Try these video lessons and learn fast
1
                (0:00)
Guitar 1
E|--------------------------------|--------------------------------|
B|--------------------------------|--------------------------------|
G|--------------------------------|--------------------------------|
D|9---9-8-9---9-8-9-8---------6---|9---9-8-9---9-8-9-8---------6---|
A|----------------------9---------|----------------------9---------|
E|--------------------------------|--------------------------------|

E|--------------------------------|--------------------------------|
B|--------------------------------|--------------------------------|
G|--------------------------------|-----------------/8-8-8-8-8-8-8-|
D|9---9-8-9---9-8-9-8---------6---|9---9-8-9---9-8-9/--------------|
A|----------------------9---------|--------------------------------|
E|--------------------------------|--------------------------------|

Guitar 2
E|--------------------------------|--------------------------------|
B|--------------------------------|--------------------------------|
G|--------------------------------|----------------8-8-8-6-6-6-6-6-|
D|6-6-6-6-6-6-6-6-6-6-6-6-6-6-6-6-|6-6-6-6-6-6-6-6-----------------|
A|--------------------------------|----------------6-6-6-4-4-4-4-4-|
E|4-4-4-4-4-4-4-4-4-4-4-4-4-4-4-4-|4-4-4-4-4-4-4-4-----------------|

E|--------------------------------|--------------------------------|
B|--------------------------------|--------------------------------|
G|11111111111111119-9-9-9-9-9-9-9/|11111111111111119-9-9-9-9-9-9-9-|
D|--------------------------------|--------------------------------|
A|9-9-9-9-9-9-9-9-7-7-7-7-7-7-7-7/|9-9-9-9-9-9-9-9-7-7-7-7-7-7-7-7-|
E|--------------------------------|--------------------------------|


(0:15)
Guitar 2
E|--------------------------------|------------------------------xx|
B|--------------------------------|------------------------------xx|
G|--------------------------------|------------------------------xx|
D|6~------------------------------|------------------------------xx|
A|--------------------------------|------------------------------xx|
E|4~------------------------------|------------------------------xx|

E|------------------------------xx|--------------------------------|
B|------------------------------xx|--------------------------------|
G|8~----------------------------xx|11~-----------------------------|
D|------------------------------xx|--------------------------------|
A|6~----------------------------xx|9~------------------------------|
E|------------------------------xx|--------------------------------|

Guitar 1 (comes in at 0:29)
E|--------------------------------|--------------------------------|
B|9~--------------7~--------------|--------------------------------|
G|--------------------------------|8~------------6~------------6-8-|
D|--------------------------------|--------------------------------|
A|--------------------------------|--------------------------------|
E|--------------------------------|--------------------------------|

E|--------------------------------|7~------------6~----------------|
B|9~--------------7~--------------|--------------------------------|
G|--------------------------------|--------------------------------|
D|--------------------------------|--------------------------------|
A|--------------------------------|--------------------------------|
E|--------------------------------|--------------------------------|


(0:42) - Same as (0:00) GO!


(0:56) 
Guitar 1
E|--------------------------------|----------------7-7-7-6-6-6-6-6-|
B|7-7-7-9-9-9-9-9-7-7-7-9-9-9-9-9-|7-7-7-9-9-9-9-9-----------------|
G|--------------------------------|--------------------------------|
D|--------------------------------|--------------------------------|
A|--------------------------------|--------------------------------|
E|--------------------------------|--------------------------------|

Guitar 2
E|--------------------------------|--------------------------------|
B|--------------------------------|--------------------------------|
G|----------------9-9-9-8-8-8-6-6-|11111111111111119-9-9-8-8-8-6-6-|
D|6-6-6-6-6-6-6-6-----------------|--------------------------------|
A|----------------7-7-7-6-6-6-4-4-|9-9-9-9-9-9-9-9-7-7-7-6-6-6-4-4-|
E|4-4-4-4-4-4-4-4-----------------|--------------------------------|


(1:23) - Same as (0:00)


(1:29) - Same as (0:15)


(1:57) - Same as (0:00) GO!!!


(2:10) - Same as (0:56)


(2:37) 
Guitar 1
E|--------------------------------|--------------------------------|
B|--------------------------------|--------------------------------|
G|9~------------------------------|------------------------9-11~---|
D|--------------------------------|--------------------------------|
A|7~------------------------------|--------------------------------|
E|--------------------------------|--------------------------------|

E|--------------------------------|--------------------------------|
B|--------------------------------|--------------------------------|
G|--------------------------------|--------------------------------|
D|9---9-8-9---9-8-9-8---------6---|9---9-8-9---9-8-9-8---------6---|
A|----------------------9---------|----------------------9---------|
E|--------------------------------|--------------------------------|

Guitar 2
E|--------------------------------|--------------------------------|
B|--------------------------------|--------------------------------|
G|--------------------------------|--------------------------------|
D|6-6-6-6-6-6-6-6-6-6-6-6-6-6-6-6-|6-6-6-6-6-6-6-6-6-6-6-6-6-6-6-6-|
A|--------------------------------|--------------------------------|
E|4-4-4-4-4-4-4-4-4-4-4-4-4-4-4-4-|4-4-4-4-4-4-4-4-4-4-4-4-4-4-4-4-|


(2:57) - Same as (0:56)


(3:25) 
Guitar 1
E|--------------------------------|----------------7-7-7-6-6-6-6-6-|
B|7-7-7-9-9-9-9-9-7-7-7-9-9-9-9-9-|7-7-7-9-9-9-9-9-----------------|
G|--------------------------------|--------------------------------|
D|--------------------------------|--------------------------------|
A|--------------------------------|--------------------------------|
E|--------------------------------|--------------------------------|

Guitar 2
E|--------------------------------|--------------------------------|
B|--------------------------------|--------------------------------|
G|--------------------------------|4-4-4-3-3-3---------------------|
D|------------4-4-6-6-6-------4-4-|------------4-4-6-6-6-4-4-4-6-6-|
A|------6-6-6-----------6-6-6-----|--------------------------------|
E|4-4-4---------------------------|--------------------------------|

E|--------------------------------|--------------------------------|
B|--------------------------------|--------------------------------|
G|--------------------------------|4-4-4-3-3-3-----4-6-6-4-6-6-4-6-|
D|------------4-4-6-6-6-------4-4-|------------4-4-----------------|
A|------6-6-6-----------6-6-6-----|--------------------------------|
E|4-4-4---------------------------|--------------------------------|

E|--------------------------------|--------------------------------|
B|--------------------------------|--------------------------------|
G|--------------------------------|4-4-4-3-3-3---------------------|
D|------------4-4-6-6-6-------4-4-|------------4-4-6-6-6-4-4-4-6-6-|
A|------6-6-6-----------6-6-6-----|--------------------------------|
E|4-4-4---------------------------|--------------------------------|

E|--------------------------------|--------------------------------|
B|--------------------------------|--------------------------------|
G|--------------------------------|4-4-4-6-6-6-8-8-9-9-9-8-8-8-6-6-|
D|------------4-4-6-6-6-------4-4-|--------------------------------|
A|------6-6-6-----------6-6-6-----|2-2-2-4-4-4-6-6-7-7-7-6-6-6-4-4-|
E|4-4-4---------------------------|--------------------------------|


(3:52)
Guitar 1
E|7~------------------------------|--------------------------------|
B|9~------------------------------|--------------------------------|
G|8~------------------------------|--------------------------------|
D|--------------------------------|--------------------------------|
A|--------------------------------|--------------------------------|
E|--------------------------------|--------------------------------|

Guitar 2
E|4~------------------------------|--------------------------------|
B|4~------------------------------|--------------------------------|
G|4~------------------------------|--------------------------------|
D|6~------------------------------|--------------------------------|
A|6~------------------------------|--------------------------------|
E|4~------------------------------|--------------------------------|
            
Submit corrections

comments powered by Disqus
↑ Back to top | Gran Ronde Tabs for Set It Off. Lyrics for acoustic guitar and electric guitar. 1 Tablatures and chords are parodies/interpretations of the original songs. You may use it for private study, scholarship, research or language learning purposes only