» » »

Gran Ronde, Run Me Over Tabs (ver.1)

Artists:  A B C D E F G H I J K L M N O P Q R S T U V W X Y Z # 

Run Me Over Tabs (ver.1)

Gran Ronde Tabs
Rating:
5/5 (1 vote)
Run Me Over lessons Tabs too difficult? Try these video lessons and learn fast
                (0:00)
Guitar 1
E|--------------------------------|--------------------------------|
B|4-4-4-2-2-2-4-4-6-6-4-2-2-2-4-4-|4-4-4-2-2-2-4-4-6-6-4-2-2-2-4-4-|
G|--------------------------------|--------------------------------|
D|--------------------------------|--------------------------------|
A|--------------------------------|--------------------------------|
E|--------------------------------|--------------------------------|

E|--------------------------------|--------------------------------|
B|4-4-4-2-2-2-4-4-----------------|4-4-4-2-2-2-4-4-6-6-6-6-6-6-6-6^|
G|----------------3-3-3-3-3-3-3-3-|--------------------------------|
D|--------------------------------|--------------------------------|
A|--------------------------------|--------------------------------|
E|--------------------------------|--------------------------------|

Guitar 2 - Same as Guitar 1, only an octave higher


(0:26)
Guitar 1
E|----------------4-4-4-----------|----------------4-4-4-----------|
B|------2-2-2-4-4-------4-4-4-2-2-|------2-2-2-4-4-------4-4-4-6-6-|
G|3-3-3---------------------------|3-3-3---------------------------|
D|--------------------------------|--------------------------------|
A|--------------------------------|--------------------------------|
E|--------------------------------|--------------------------------|


(0:50) - Same as (0:00)


(1:26) - Same as (0:26)


(2:15)
Guitar 1
E|9-9-9-9---------6-6-6-6---------|9-9-9-9---------6-6-6-6---------|
B|--------9-9-9-9---------6-6-6-6-|--------9-9-9-9---------6-6-6-6-|
G|--------------------------------|--------------------------------|
D|--------------------------------|--------------------------------|
A|--------------------------------|--------------------------------|
E|--------------------------------|--------------------------------|

E|9-9-9-9---------6-6-6-6---------|--------------------------------|
B|--------9-9-9-9---------6-6-6-6-|7-7-7-7-9-9-9-9-7-7-7-7-6-6-6-6-|
G|--------------------------------|--------------------------------|
D|--------------------------------|--------------------------------|
A|--------------------------------|--------------------------------|
E|--------------------------------|--------------------------------|

E|9-9-9-9---------6-6-6-6---------|9-9-9-9---------6-6-6-6---------|
B|--------9-9-9-9---------6-6-6-6-|--------9-9-9-9---------6-6-6-6-|
G|--------------------------------|--------------------------------|
D|--------------------------------|--------------------------------|
A|--------------------------------|--------------------------------|
E|--------------------------------|--------------------------------|

E|--------------------------------|--------------------------------|
B|7-7-7-7-9-9-9-9-7-7-7-7-6-6-6-6-|7-7-7-7-9-9-9-9-7-7-7-7-6-6-6-6-|
G|--------------------------------|--------------------------------|
D|--------------------------------|--------------------------------|
A|--------------------------------|--------------------------------|
E|--------------------------------|--------------------------------|


(2:40) - Same as (0:00)
            
Submit corrections

comments powered by Disqus
↑ Back to top | Gran Ronde Tabs for Run Me Over. Lyrics for acoustic guitar and electric guitar. Tablatures and chords are parodies/interpretations of the original songs. You may use it for private study, scholarship, research or language learning purposes only