» » »

Grandmaster Flash And The Furious Five, Jesse Bass tabs (ver.1)

Artists:  A B C D E F G H I J K L M N O P Q R S T U V W X Y Z # 

Jesse Bass tabs (ver.1)

Grandmaster Flash And The Furious Five Tabs
 Rating:
4/5 (4 votes)
Jesse lessons Tabs too difficult? Try these video lessons and learn fast
                

This is a great song about one (Im not sure which) of Reverend Jesse Jackson's ill fated 
to become a democratic presidential candidate. its a great groove to play along to

Main Riff come in on 0m 15s

G|---------------------------------|
D|------------------------3----3h5-|
A|--0-1-3-5--5---------------------|
E|3-------------3-3-1-3-----X-X----|
                          p t t p

Bridge

G|-----------------------------------|
D|-----------------------------------|
A|1-1-1---1--3-------1-1---1---------|
E|------3--------1h3-----3--------1-3|

Play X 3
Last time you play the bridge, play
G|-------------------------------------|---|
D|----------------------------------5/-|---|
A|1-1-1---1--3-------1-1---1-----------|---|
E|------3--------1h3-----3--------1----|3--|

And rest
Come back in with the main riff on 1 26s

Play Bridge at 2m 00s

Come back in with the riff at 2m 35

Stop playing at 3m 29s

Play main riff at 3m 46s

Play bridge twice without rest at 4m 22s

Play main riff and fade.

For quite a long time there are ilences after the bridge. I find that it is fun to have 
slap solo during them, but do what you like. It may also be useful to use a synthesiser 
or something similar to emulate the sound of the bass line in the track
RoshanC
            
Submit corrections

comments powered by Disqus
↑ Back to top | Grandmaster Flash And The Furious Five Bass for Jesse. Lyrics for acoustic guitar and electric guitar. Tablatures and chords are parodies/interpretations of the original songs. You may use it for private study, scholarship, research or language learning purposes only