>
 >
In Need

In Need Guitar Tabs

Grand Funk Railroad - In Need chords, tabs, tablatures, lyrics

Guitar lessons | Add/correct | Request | Top 50 tabs Artists:  A B C D E F G H I J K L M N O P Q R S T U V W X Y Z 0-9

In Need Guitar Tabs – Grand Funk Railroad

CD, Sheet music, Poster

Do you like In Need? Share with your friends now
Tabs
-----------------------------------------------------------------------------
-----------------------------------------------------------------------------

Tuning:E
				D
e|--------------------------------------------------------------------|
B|--------------------------------------------------------------------|
G|-12---------------------------11-11------10-11-12-13/14-----10------|
D|-12h14-12-----------------12--12-12---12-----------------12----12---|
A|----------14\12-10--12/14-----12-12---------------------------------|
E|------------------------------10-10---------------------------------|

		      	   G 		repeat
e|------------------------------------------------|
B|------------------------------------------------|
G|-12----12-12-------------12--12--12-12-12-------|
D|-12h14-14-14-------------12--12--12-12-12-------|
A|--------------14\12-10---10--10--10-10-10-------|
E|------------------------------------------------|


   G		D			          G
e|------------------------------------------------------------------|
B|--------------10--------------------------------3-----------------|
G|--------------11--------------------------------4-----------------|
D|------------------------------------------------------------------|
A|--------------12--------------------------------5-----------------|
E|--------------10--------------------------------3-----------------|
	Hey hey mama mama..
  I saw and old high..

  G	   D	     	      			  G	    G  F   E
e|--------------------------------------------------------------------|
B|---------10---------------------------------------------------------|
G|---------11-------------------------------------4---------12-10--9--|
D|----------------------------------------------------------12-10--9--|
A|---------12-------------------------------------5---------10-8---7--|
E|---------10-------------------------------------3-------------------|


  E			 C	    C  D   E		       C     C  D   E
e|----------------------------------8-10------------------------------------|
B|----------------------------------8-10------------------------------------|
G|-----------------------9----------9-11---9--------------------------------|
D|-----------------------10----------------9--------------------------------|
A|-----------------------10----------------7--------------------------------|
E|-----------------------8--------------------------------------------------|
  Now do you think I'm a young boy ..
  Now do you call this a friendship..


  E		         C		      Bb           C  	      G
e|--------------------------------------------------------------------------|
B|--------------------------------------------------------------------------|
G|-----------------------9--------------------7------------9----------4-4-4-|
D|-----------------------10-------------------8------------10---------5-5-3-|
A|-----------------------10-------------------8------------10---------5-5-5-|
E|-----------------------8--------------------6------------8----------3-3-3-|
  Well I just cashed..
  If  you  do  have..

   G   G7    G7      	   Bb             C         G   G7   G7
e|--------------------------------------------------------------------|
B|--------------------------------------------------------------------|
G|-4-4-4-4-4-4-4-4-4-------7--------------9---------4-4-4-4-4-4-4-----|
D|-5-5-3-5-5-3-5-5-5-------8--------------10--------5-5-3-5-5-3-5-----|
A|-5-5-5-5-5-5-5-5-5-------8--------------10--------5-5-5-5-5-5-5-----|
E|-3-3-3-3-3-3-3-3-3-------6--------------8---------3-3-3-3-3-3-3-----|
                I'm going leave ..
	                  nobody going...


   G   Bb G   F G  Bb G   F continue pattern
e|--------------------------------------------------------------------------|
B|--------------------------------------------------------------------------|
G|-4-4-3--4-4-2-------------------------------------------------------------|
D|-5-5-3--5-5-3-------------------------------------------------------------|
A|-5-5-1--5-5-3-------------------------------------------------------------|
E|-3-3----3-3-1-------------------------------------------------------------|

      solo
e|--------------------------------------------------------------------------|
B|--------------------------------------------------------------------------|
G|-------------10B----12--12------------------10----10----------------------|
D|---------------------------8h10-8--------8-----10----10--8-8-8-10-8-------|
A|-----------------------------------10-10----------------------------10-10-|
E|--------------------------------------------------------------------------|
  friend, friend

e|---------------------------------------------------------3-------3--6b-6b-|
B|---------------------------------------------------1/3-6---6b-6b--3-------|
G|--------------------------------------------------------------------------|
D|8--/12-12--12--10--8------------------------------------------------------|
A|--------------------10--8--5----------------------------------------------|
E|------------------------------8--6--3-1-1-1-1-1/3-------------------------|


e|3---3-3sb-3---------------------------------------------------------------|
B|--6--------6-----------------------------------6-----------------6--------|
G|-------------5b(5)3-5b-5b-3-5-3---3-5-3-5-3-55b--5b(5)3--3-5-5-5b--5b(5)3-|
D|-------------------------------5-5----------------------5----------------5|
A|--------------------------------------------------------------------------|
E|--------------------------------------------------------------------------|


e|--------------------------------------------------------------------------|
B|---------6--------6-----------------------3-6---3-6---3-6---3-6---3-6--3-6|
G|3-5-5-5b--5b(5)3-5-5b(5)3-5b-5b-3-----3-5b----5b----5b----5b----5b---5b---|
D|---------------------------------5-3-5------------------------------------|
A|--------------------------------------------------------------------------|
E|--------------------------------------------------------------------------|

e|-----3----3---3----3----3----6----6----6----6----6----6----6--------------|
B|---3----3---3----3----3----3----3----3----3----3----3----3----------------|
G|5b---5b---5b---5b---5b---5b---5b---5b---5b---5b---5b--5b---5b(5)3-3h5-3-3-|
D|--------------------------------------------------------------------------|
A|--------------------------------------------------------------------------|
E|--------------------------------------------------------------------------|


e|--------------------------------------------------------------------------|
B|--------------------------------------------------------------------------|
G|--------------3---5-3-----------------------------------------------------|
D|5-3-3-3h5-3-5---5-----5-3------------------------33333---33333---3333---33|
A|-------------------------5-4-3-1----------1h3-3/5-----3/5-----3/5----3/5--|
E|--------------------------------3-1-3-3p1---------------------------------|


e|-------------------------------------------------------------------------|
B|-------------------------------------------------------------------------|
G|---------------------------------------------------------------3-5-3-----|
D|----33----33----33----333h5-3-5--5--5--5--5--5--5-----3h5-5-5-5------5-5-|
A|-3/5---3/5---3/5---3/5---------------------------------------------------|
E|-------------------------------------------------------------------------|


e|--------------------------------------------------------------------------|
B|----------------------------------------------------6-6-6-6-6-6-5-5-5-5-5-|
G|---3-5-3--------3-5-3--------3-5-3----------------------------------------|
D|5-5------5-5-5-5------5-5-5-5------5-5---5---5---5------------------------|
A|--------------------------------------------------------------------------|
E|--------------------------------------------------------------------------|

e|-------------------3---3---3-------------------------------------------|
B|-5-3-3-3-3-3-3----3---3---3--------------------------------------------|
G|----------------5b--5b--5b--5b(5)3----------3-5-3--------3-5-3---------|
D|------------------------------------5-5-5-5-------5-5-5-5------5-5-5-5-|
A|-----------------------------------------------------------------------|
E|-----------------------------------------------------------------------|
								repeat
e|------------------------------------------------3---3---3----------------|
B|---------6-6-6-6-6-6-5-5-5-5-5-5-3-3-3-3-3-3---3---3---3-----------------|
G|-3-5-3---------------------------------------5b--5b--5b--5b(5)3----------|
D|-------5--------------------------------------------------------5-5-5-5--|
A|-------------------------------------------------------------------------|
E|-------------------------------------------------------------------------|

|(12) note heard but not picked		| +  harmonic
| h  hammer-on				| x  Mute note
| p  pull-off				| b  bend
| ~  vibrato				| /  slide up
| /  slide up

===============================================================================





Comments


Popular Grand Funk Railroad tabs & chords
Paranoid Bass Tabs
Feelin' Alright 1 Tabs
High Falootin Mama Tabs
I'm Your Captain Tabs
I'm Your Captain 1 Tabs
Inside Looking Out Tabs
Inside Looking Outmain Tabs
Are You Ready Ukulele
Im Your Captain Ukulele
Some Kind Of Wonderful Ukulele


Song lyrics



↑ Back to top | Tablatures and chords are parodies/interpretations of the original songs. You may use it for private study, scholarship, research or language learning purposes only
© 2014 AZChords.com Contact us | Privacy policy | DMCA | Add/correct tabs | Request tabs | Top 50 tabs