» » »

Grand Funk Railroad, I'm Your Captain Bass tabs (ver.1)

Artists:  A B C D E F G H I J K L M N O P Q R S T U V W X Y Z # 

I'm Your Captain Bass tabs (ver.1)

Grand Funk Railroad Tabs
Rating:
0/5 (0 votes)
I'm Your Captain lessons Tabs too difficult? Try these video lessons and learn fast
                GRAND FUNK RAILROAD
"I'M YOUR CAPTAIN/CLOSER TO HOME"



PRE INTRO         3x
G  |---------------|
D  |---------------|
A  |-0---/5--------|
E  |---------------|

INTRO                            9x               1x
G  |-------------------------------|----------------|
D  |--------5-3-2-0----------------|----------------|
A  |--5-5------------3-2--0-3-2----|--5-----/12---- |
E  |-------------------------------|----------------|

                                                        1x
G  |-------------------------------------------------------|
D  |-------------------------------------------------------|
A  |--5-5---5-5---5-5---5-5---5-5---5-5---5-5---5-5---5-5--|
E  |-------------------------------------------------------|

                         24x
G  |------------------------|
D  |------------------------|
A  |-5---3-2-----------3-5--|
E  |-----------0-2-3-5------|

BRIDGE1                               2x
G  |------------------------------------|
D  |--------6--5--3---------------------|
A  |--5-5-------------5--4--3--2--0-/5--|
E  |------------------------------------|
   
                                                         2x
G|----------------------------------------------------------------------22222222-|
D|--------------------------------------------------------------33333333---------|
A|-5--5-5----1--1-1----3-5--5-5----1--1-1----3-5--5-5----1--1-1------------------|
E|-------------------------------------------------------------------------------|

BRIDGE2                         8x
G |------------------------------|------------|
D |--------5-3-2-0---------------|------------|
A |--5-5------------3-2--0-3-2---|--5--/12----|
E |------------------------------|------------|

                         24x
G |--------------------------|
D |--------------------------|
A |-5---3-2-----------3-5----|
E |-----------0-2-3-5--------|


                                        1x 
       1x
G|------------------------------------------|-------------------------------------|
D|-----------------------------12-----------|-------------------------------------|
A|-5----5-3----------2-3-5---12--12----5-3--|-5---3-------------2-3-5------5---3--|
E|----------0-2-3-4-5--------------10-------|--------0-2-3-4-5--------------------|

                                        5X
G |-----------------------------------------|
D |----------------------------12-----------|
A |--5-3-------------2-3-5---12--12----5-3--|
E |-------0-2-3-4-5-----------------10------|

ENDING                                   1x
G |----------------------------------------|
D |----------------------------------------|
A |-3-3-3-3---3-3-3-3---3-3-3-3---3-3-3-3--|
E |----------------------------------------|


1x
G|-------------------------------------------------------------------------------|
D|-------------------------------------------------------------------------------|
A|-0-5-5---0-5-5---0-5-5---0-5-5-4-4-3-3---0-3-3---0-3-3---0-3-3---0-3-3-4-4-5-5-|
E|-------------------------------------------------------------------------------|

                                                          ?x(fadeout)
G|-----------------------7--------------------------------------------|
D|---------------------7---7------------------------------------------|
A|-0-5-5---0-5-5---0-5------5-4-3-3---0-3-3---0-3-3-----------2-3-4-5-|
E|----------------------------------------------------0-3-4-5---------|



You can alternate between the last 2 riffs during the fadeout.


NOTE:  I reworked some of the previous tab and completed the rest of the

song.  The changes are minor, but I wanted it to be as accurate as
possible.  I am aware of the fact that some parts may not be perfect,
but they are close enough to please your audience!
            
Submit corrections

comments powered by Disqus
↑ Back to top | Grand Funk Railroad Bass for I'm Your Captain. Lyrics for acoustic guitar and electric guitar. Tablatures and chords are parodies/interpretations of the original songs. You may use it for private study, scholarship, research or language learning purposes only