>
 >
Killing Me

Killing Me Guitar Tabs

Graham Colton - Killing Me chords, tabs, tablatures, lyrics

Guitar lessons | Add/correct | Request | Top 50 tabs Artists:  A B C D E F G H I J K L M N O P Q R S T U V W X Y Z 0-9

Killing Me Guitar Tabs – Graham Colton

CD, Sheet music, Poster

Do you like Killing Me? Share with your friends now
ChordsChords v2Chords v3TabsUkulele
Tuning: 1/2 step down (Eb Ab Db Gb Bb eb)
Capo  : None

intro/verse
--0---0-0--0----0----0-0--0-------0-0-0---0-0-0-------
--0---0-0--0----0----0-0--0-------x-x-x---x-x-x-------
--2---x-x--x----2----x-x--x-------2-4-2---2-4-2-------
--2---9-9/11----2----9-9/11-9\7---0-0-0---0-0-0-------
--0---x-x--x----0----x-x--x-------0-0-0---0-0-0-------
--X---x-x--x----x----x-x--x-------x-x-x---x-x-x-------


pre-chorus
------0----------0----------0----------0-------0-
----0---0------0---0------0---0------0---0-----0-strum
----------2----------4----------7----------6---x-into
-----------------------------------------------9-chorus
--2----------2----------5----------0-----------0-
-----------------------------------------------x-


chorus
--0--0--0--0--0--0-----0--0--0--0--0--0-------------
--0--x--0--0--0--0-----0--x--0--0--0--0-------------
--x--4--x--x--x--x-----x--4--x--x--x--x-------------
--2--0--9--7-11-12-----2--0--9--7-11-12-------------
--0--2--0--0--0--0-----0--2--0--0--0--0-------------
--x--x--x--x--x--x-----x--x--x--x--x--x-------------


bridge
--0--0---0--0---0--0---0--0---0--0---0----0---0--0--0--0--
--0--0---0--0---0--0---0--0---0--0---0----0---0--0--0--0--
--x--x---x--x---x--x---x--x---x--x---x----x---x--x--x--x--
-11-12---7--9--11-12---7--9--11-12---7----9--11-12-14-14--
--0--0---0--0---0--0---0--0---0--0---0----0---0--0--x--0--
-11-12---x--x--11-12---x--x--11-12---x----x--11-12--x--x--


ending, just play around with this pattern with an occasional strum.
-----------------------0-----------------------------0----
----0---0---0------0-----0------0---0---0------0-----0--
--1---1---1------1---1--------1---1---1------1---1------
--------------------------------------------------------
--------------------------------------------------------
--------------------------------------------------------

well there you go. i transcibed this on my acoustic with the band 
version of the song, so i'm sure there are a few tiny parts that 
aren't correct, but if you play it with or without the song it 
sounds alike. 

~~~~~~~~~~~~~~~~~~~
Why try to be better when you can mediocrity - Me





Comments


Popular Graham Colton tabs & chords
If Love Was Enough Chords
Killing Me Chords
Killing Me 2 Chords
Love Comes Back Around Chords
Morning Light Chords
Start Somewhere Chords
Always In Love Intro Tabs
Best Days Tabs
Cellophane Girl Tabs
Let It Go Tabs


Song lyrics



↑ Back to top | Tablatures and chords are parodies/interpretations of the original songs. You may use it for private study, scholarship, research or language learning purposes only
© 2014 AZChords.com Contact us | Privacy policy | DMCA | Add/correct tabs | Request tabs | Top 50 tabs