» » »

Graham Colton, Jessica Tabs (ver.1)

Artists:  A B C D E F G H I J K L M N O P Q R S T U V W X Y Z # 

Jessica Tabs (ver.1)

Graham Colton Tabs
 Rating:
4/5 (4 votes)
Jessica lessons Tabs too difficult? Try these video lessons and learn fast
                Tuning: Standard (EADGBe)
Capo I

-----3--X--3--3---3--X-----
-----3--3--3--3---3--3-----
-----0--2--0--0---0--2-----
-----3--0--0--0---3--0-----
-----2--0--2--2---2--0-----
0h3-X--X--0--3---X--X--0h3

barebones it's just C D Em G


verse:
you're the one i can't figure out
-0--X--3--3 x4 0----------x-----3-3-3-----
-3--3--3--3 3----------3-----3-3-3-----
-0--2--0--0 0----------2-----0-0-0-----
-0--0--2--0 0----------0-----2-2-2-----
-2--0--3--3 2----------0-----3-3-3-----
-0--x--X--2 0----------x-----X-X-x--0h3


messin'...

-0--X--3--3 x2 0--0--3
-3--3--3--3 3--2--3
-0--2--0--0 0--0--0
-x--0--2--0 X--0--2
-2--0--3--3 2--x--3
-0--x--X--2 0--2--x--0h3

chorus:

-3--x--3--3--3--3--3--X--3 x2 second time
-3--2--3--3--3--3--3--3--3 instead of last 
-0--3--0--0--0--0--0--2--0 Em (second to 
-2--0--0--0--X--0--2--0--x last chord)
-3--0--x--X--2--2--3--0--2
-x--X--3--2--0--3--X--x--0 ---0h3---

back to verse...
back to chorus... (second time through keep and hold last Em chord)

bridge: (as far as i can tell...)

goodbye..
-0----for----0--3----X---
-3----a----- 3--3----3---
-0----long---0--0----2---
-X----time-- X--0----0---
-2---------- 2--2----0---
-0---------- 0--3----X----0h3

break:

-3--x--3--3 x3 -3--X--
-3--3--3--3 -3--3--
-0--2--0--0 -0--2--
-2--0--x--0 -2--0--
-3--0--2--2 -3--0--
-X--x--0--3 -X--x--0h3

back to chorus...

ends on D sans 3rd

yeah...i think this is what it is...a lot of the chords that 
have the 3rd fret down on the high e string may just be open...
it's a judgement call. but this is what i could put together 
            
Submit corrections

comments powered by Disqus
↑ Back to top | Graham Colton Tabs for Jessica. Lyrics for acoustic guitar and electric guitar. Tablatures and chords are parodies/interpretations of the original songs. You may use it for private study, scholarship, research or language learning purposes only