» » »

Graham Colton, First Week Tabs (ver.3)

Artists:  A B C D E F G H I J K L M N O P Q R S T U V W X Y Z # 

First Week Tabs (ver.3)

Graham Colton Tabs
 Rating:
4/5 (4 votes)
First Week lessons Tabs too difficult? Try these video lessons and learn fast
1
                First Week
Graham Bolton Band


Lead Guitar(Either No Rhythm or Rhythm doubles)
Intro 
                                            
E|-------------------------------------------------------------------------|
B|-------------------------------------------------------------------------|
G|-------7-7-7-7-7-11-11-11-12-12-12-12-12-------7-7-7-7-7-----------------|
D|-7-7-7-7-7-7-7-7-11-11-11-12-12-12-12-12-7-7-7-7-7-7-7-7-4-4-4-5-5-5-5-5-|
A|-7-7-7-5-5-5-5-5-9--9--9--10-10-10-10-10-7-7-7-5-5-5-5-5-4-4-4-5-5-5-5-5-|
E|-5-5-5-----------------------------------5-5-5-----------2-2-2-3-3-3-3-3-|

Verse(Lead
E|--------------------------------|
B|--------------------------------|
G|------7-7-7-7-7-----------------|
D|7-7-7-7-7-7-7-7-4-4-4-5-5-5-5-5-|
A|7-7-7-5-5-5-5-5-4-4-4-5-5-5-5-5-|
E|5-5-5-----------2-2-2-3-3-3-3-3-|

Rhythm ONLY when noted below
A D F#m G

Chorus-Chords
D A Em G

Rhythm Guitar during Bridge-Chords
Bridge 1:Bm Bb D E
Bridge 2:Bm Bb D A

Lead Guitar During Bridge
 Bridge 1                             
E|------------------------------------------------------------------------------------------------||
B|-12-12-12-12-12-12-12-12-11-11-11-11-11-11-11-11------------------------------------------------||
G|-11-11-11-11-11-11-11-11-10-10-10-10-10-10-10-10------------------------------------------------||
D|-9--9--9--9--9--9--9--9--8--8--8--8--8--8--8--8--12-12-12-12-12-12-12-12-14-14-14-14-14-14-14-14||
A|-------------------------------------------------12-12-12-12-12-12-12-12-14-14-14-14-14-14-14-14||
E|-------------------------------------------------10-10-10-10-10-10-10-10-12-12-12-12-12-12-12-12||
  Bridge 2                                                  
E|------------------------------------------------------------------------------------------------||
B|-12-12-12-12-12-12-12-12-11-11-11-11-11-11-11-11------------------------------------------------||
G|-11-11-11-11-11-11-11-11-10-10-10-10-10-10-10-10-7-7-7-7-7-7-7-7--------------------------------||
D|-9--9--9--9--9--9--9--9--8--8--8--8--8--8--8--8--7-7-7-7-7-7-7-7-7-7-7-7-7-7-7-7-7-7-7-7-7-7-7-7||
A|-------------------------------------------------5-5-5-5-5-5-5-5-7-7-7-7-7-7-7-7-7-7-7-7-7-7-7-7||
E|-----------------------------------------------------------------5-5-5-5-5-5-5-5-5-5-5-5-5-5-5-5||

Order:
Intro x 3
Verse x 4
Chorus x 2
Intro x 3
Verse(+rhythm verse) x 4
Chorus x 2
Bridge 1 x 3
Bridge 2 x 1
Intro x 2
Chorus x 4
Verse x 4
Verse(+ rhythm verse) x 4
end on a D or A
            
Submit corrections

comments powered by Disqus
↑ Back to top | Graham Colton Tabs for First Week. Lyrics for acoustic guitar and electric guitar. 1 Tablatures and chords are parodies/interpretations of the original songs. You may use it for private study, scholarship, research or language learning purposes only