» » »

Cellophane Girl Tabs (ver.1)

Artists:  A B C D E F G H I J K L M N O P Q R S T U V W X Y Z # 

Cellophane Girl Tabs (ver.1)

Graham Colton
Rating:
5/5 (2 votes)
Tabs too difficult? Try these video lessons and learn fast.
                
Everything was right about the other tab except the chorus.

Capo 3

Intro/Verse:
e--3--2--3--3--|
B--3--3--3--3--|
G--0--2--0--0--|
D--0--0--2--2--|
A--2-----2--3--|
E--3-----0-----|

Chorus:
e--3-----3-----3-----3---2--|
B--3-----3-----3-----3---3--|
G--2-----0-----0-----0---2--|
D--2-----2-----2-----0---0--|
A--0-----2-----3-----2------|
E--------0-----------3------| (The last G & D get played half as long)
   A/G   Em/G  C/G   G   D
            
Tabs too difficult? Try these video lessons and learn fast.


comments powered by Disqus
↑ Back to top | Tablatures and chords are parodies/interpretations of the original songs. You may use it for private study, scholarship, research or language learning purposes only