» » »

Best Days Tabs (ver.1)

Artists:  A B C D E F G H I J K L M N O P Q R S T U V W X Y Z # 

Best Days Tabs (ver.1)

Graham Colton
Rating:
5/5 (10 votes)

Hard to play? Try these video lessons and learn fast.
                
All chords played like the open C form.
Hammer the middle finger whenever the mood strikes you.

Intro (x2)
e--3--3--3--3--|
B--1--1--1--1--|
G--0--0--0--0--|
D--2--0--2--0--|
A--3--2--0--2--|
E-----------3--|

Verse:
e--3--3--|
B--1--1--|
G--2--0--|
D--3--0--|
A--x--2--|
E-----3--|

Chorus:
e--3--3--3--3----3----3--|
B--1--1--1--1----1----1--|
G--0--0--0--0----2----0--|
D--2--0--2--0----3----0--|
A--3--2--0--2----x----2--|
E-----------3---------3--| x2, then repeat final two chords
            
Hard to play? Try these video lessons and learn fast. | Correct




comments powered by Disqus
↑ Back to top | Tablatures and chords are parodies/interpretations of the original songs. You may use it for private study, scholarship, research or language learning purposes only