» » »

Govt Mule, Game Face Bass tabs (ver.1)

Artists:  A B C D E F G H I J K L M N O P Q R S T U V W X Y Z # 

Game Face Bass tabs (ver.1)

Govt Mule Tabs
 Rating:
4/5 (4 votes)
Game Face lessons Tabs too difficult? Try these video lessons and learn fast
                
Main groove
G---------------------------------------------}
D-----20------2------20-----------------------}
A----2--44-424-4----2--44---------------------}
E-023------------023------0-1-2-3-------------}

Variation
G---------------------------------------------}
D-----20--------------------------------------}
A----2--44-2/42/4-----------------------------}
E-023-------------4-p20-----------------------}

Chorus
G----------------------------}
D-------------------3-3----2-}
A-----------2----------------}
E-323--33-23-3-2-11-----00---}
            
Submit corrections

comments powered by Disqus
↑ Back to top | Govt Mule Bass for Game Face. Lyrics for acoustic guitar and electric guitar. Tablatures and chords are parodies/interpretations of the original songs. You may use it for private study, scholarship, research or language learning purposes only