>
 >
Lets Get Together

Lets Get Together Guitar Tabs

Gorkys Zygotic Mynci - Lets Get Together chords, tabs, tablatures, lyrics

Guitar lessons | Add/correct | Request | Top 50 tabs Artists:  A B C D E F G H I J K L M N O P Q R S T U V W X Y Z 0-9

Lets Get Together Guitar Tabs – Gorkys Zygotic Mynci

CD, Sheet music, Poster

Do you like Lets Get Together? Share with your friends now
Tabs
Gorkeys Zygotic Mynci

'Lets Get Together'


Awesome Song:

Intro:
           F              Dm             Am                    Bb
E--------------------------------------------------------------------------|
B--------------------------------------------------------------------------|
G------------5---------------------------7/9------------9-9----------------|
D--3-3-5-5/7---7----5-5-3-5-3----------------10-10bend------10-10/12-10-8--|
A-----------------------------5----5-5-5-----------------------------------|
E--------------------------------------------------------------------------|

           F                  Dm             Am                  Bb
E---------------------------------------------------------------------------|
B---------------------------------------------------------------------------|
G-------------10----10------------------------------------------------------|
D--7-7-8-8/10----10----10-8-7-8-7----------------------------------3--------|
A---------------------------------8----8-8-8-7bend-8/10----7-7-7-5----------|
E---------------------------------------------------------------------------|


Apologies if the lyrics are wrong - i couldn't find them anywhere on the net so had
to guess from listening to them.

Verse 1:

(Chords are picked - listen to tune - easy to pick up)

          F                             Dm
I fell in love with you, or was it your picture.
            Am                 Bb
I loved you here, you loved me there.
           F                       Dm
Or your supposed to be in love, so am i.
            Am                 Bb
so what the hell, lets meet up in our minds.

and

Chorus:

Dm         G
lets get together x 4
          C
Or in our minds


Instrumental:

Play verse chords - Keep Picking chords though


Verse 2:
       F                       Dm
Oh unremarkable, this ghost in space.
      Am            Bb
lonleyness, took my place.
         F                       Dm
you know you being here seems so right.
          Am               Bb
Full moon shining, for the night.

and


Chorus:

Dm         G
Lets get together x 2
       Am                     F              Dm
in our minds you know there's nothing we can do
           Am                     F             Dm
and all my thoughts you know they seem to be of you
      Am          F           Dm
do do do do do do do do do do do do do
Dm         G
Lets get together x 2
          C
Or in our minds





Comments


Popular Gorkys Zygotic Mynci tabs & chords
Eating Chords
How I Long Chords
Patio Song Chords
Y Fford Oren Chords
Iechyd Tabs
Patio Song Tabs
How I Long Ukulele
Hush The Warmth Ukulele
Iechyd Ukulele
Patio Song Ukulele


Song lyrics



↑ Back to top | Tablatures and chords are parodies/interpretations of the original songs. You may use it for private study, scholarship, research or language learning purposes only
© 2014 AZChords.com Contact us | Privacy policy | DMCA | Add/correct tabs | Request tabs | Top 50 tabs