» » »

Patio Song Tabs (ver.1)

Artists:  A B C D E F G H I J K L M N O P Q R S T U V W X Y Z # 

Patio Song Tabs (ver.1)

Gorkeys Zygotic Mynci
Rating:
0/5 (0 votes)

Hard to play? Try these video lessons and learn fast.
                Patio Song - Gorky's Zygotic Mynci


  Well, this is a strange song (of course it is, this is a Gorky's song!
  and I'm desesperately looking for the lyrics so please someone help me!

Tune: Eb Ab Db Gb Bb eb

These are the chords of the arpeggio:

 D   F#m   G   A

And this is the arpeggio (not 100% right in the A chord)

          D           D           F#m           F#m
e|--------5-----------5-----------------------------------------|
B|------7---7-------7---7-----------10---------------10---------|
G|----7-------7---7-------7------11----11---------11----11------|
D|----------------------------11----------11---11----------11---|
A|--5-----------5-----------9----------------9------------------|
E|--------------------------------------------------------------|

           G                  G              A           A
e|----------10----------------10-------------5-----------5-----|
B|-------12----12----------12----12--------5---5-------5---5---|
G|----12----------12----12----------12---6-------6---6-------6-|
D|-------------------------------------------------------------|
A|-10----------------10----------------------------------------|
E|-------------------------------------5-----------5-----------|

Repeat this arpeggio a lot!!!

In the pre-chorus part play these chords:

 G   A

 D   G   A


When he starts to sing in "the straaange" language:

 D  G   D  G   G  A   G  A   (Repeat this until the end of the song)
            
Hard to play? Try these video lessons and learn fast. | Correct




comments powered by Disqus
↑ Back to top | Tablatures and chords are parodies/interpretations of the original songs. You may use it for private study, scholarship, research or language learning purposes only