» » »

Gorillaz, Bobby In Phoenix Tabs (ver.1)

Artists:  A B C D E F G H I J K L M N O P Q R S T U V W X Y Z # 

Bobby In Phoenix Tabs (ver.1)

Gorillaz Tabs
Rating:
5/5 (5 votes)
Bobby In Phoenix lessons Tabs too difficult? Try these video lessons and learn fast
                Hey all you Gorillaz fans (much like myself) This is "bobby in Phoenix" from the new 
album "The Fall". I did this all by ear, So if there's any probs let me know @ 

*Note* Play Part A after each group of chords


Tuning: Standard (EADGBe)                 Play this three times consecutively
   Part A                                         |=======================|
E|------------------------------------------------0---0---0---0---0--0-00-|
A|---------------------------------5-7------------2---0---2---0---2--0-00-|
D|------------------------2h4-4h6------6s4s2------2---2---2---2---2--2-22-|X2
G|--------------------2h4---------------------4---0---0---0---0---0--0-00-|
B|---7------------2h4-----------------------------0---0---0---0---0--0-00-|
e|---5---0-2-5-----------------------------------------------------------0|
                                                        Part B^
After playing the part above, Play Part A again and follow up with:
 Part C
E|--0---0---0---0---0---0--00-0---0---0---0---0---0--00|
A|--2---0---2---0---2---0--00-2---0---2---0---2---0--00|
D|--2---2---2---2---2---2--22-1---1---1---1---1---1--11|
G|--4---4---4---4---4---4--44-2---2---2---2---2---2--22|
B|--4---4---4---4---4---4--44-2---2---2---2---2---2--22|
e|--0---0---0---0---0---0--00-0---0---0---0---0---0--00|

(Continued)

E|--0---0---0---0---0---0--00-0---0---0---0---0-0-0-0|
A|--2---0---2---0---2---0--00-2---0---2---0---2-2-2-2|
D|--2---2---2---2---2---2--22-1---1---1---1---1-1-1-1|
G|--4---4---4---4---4---4--44-2---2---2---2---2-2-2-2| Then it's a pause then
B|--4---4---4---4---4---4--44-2---2---2---2---2-2-2-2| it goes back to part
e|--0---0---0---0---0---0--00-0---0---0---0---0-0-0-0| B

So Yup There you go! Btw NOODLE SO SEXY :3
            

comments powered by Disqus
↑ Back to top | Gorillaz Tabs for Bobby In Phoenix. Lyrics for acoustic guitar and electric guitar. Tablatures and chords are parodies/interpretations of the original songs. You may use it for private study, scholarship, research or language learning purposes only