» » »

Name Chords (ver.1)

Artists:  A B C D E F G H I J K L M N O P Q R S T U V W X Y Z # 

Name Chords (ver.1)

Goo Goo Dolls
Rating:
0/5 (0 votes)

Hard to play? Try these video lessons and learn fast.
                ----------------------------------------------------------------------------
----------------------------------------------------------------------------

Tuning: Standard

G* (030023) D/F* (032002) C* (030230) Em* (030220) 

Intro
     G         D/F         C           Em   D     E
e|---------------------------------------------------|
B|--------3---------3------------0---------3---3-----|
G|------------0----------0-----0---0------0---0------|
D|-----0---0------0---0------0-------0---------------|
A|-------------------------3------------2---------2--|
E|---3----------2----------------------------2-------|

Part 2

e|---0---0---0---0--0--0--0--0--0---0--0--0--0--0--0--0--0--0--|
B|---0---0---0---0--0--0--0--0--0---0--0--0--0--0--0--0--0--0--|
G|---2/4-4/6-6/9-9--9--9--9--9--9/6-6--2--4--6--6--6--6--4--2--|
D|---2/4-4/6-6/9-9--9--9--9--9--9/6-6--2--4--6--6--6--6--4--2--|
A|---0---0---0---0--0--0--0--0--0---0--0--0--0--0--0--0--0--0--|
E|---0---0---0---0--0--0--0--0--0---0--0--0--0--0--0--0--0--0--|


G                    D/F             C
And even though the moment passed me by 
  Em           D     E     (Part 2)
I still can't turn away 
G                         D/F                 C
Cause all the dreams you never thought you'd lose
     Em       D      E     (Part 2) 
Got tossed along the way 
G                     D/F            C
And letters that you never meant to send 
   Em         D     E      (Part 2)
Get lost or thrown away

Chorus

G*                      D/F*
And now we're grown up orphans
      C*                Em*
That never knew their names 
G                   D/F*
We don't belong to no one 
          Em*
That's a shame
G*                D/F*
you could hide beside me
C*           Em* 
Maybe for a while 
Em*               D/F*       C* 
And I won't tell no one your name
 
And I won't tell em your name

G               D/F            C
Scars are souvenirs you never lose
    Em         D   E       (part 2)
The past is never far 
G                D/F                 C
Did you lose yourself somewhere out there
        D/F     D   E      (part 2)
Did you get to be a star 
G                     D/F              C
And don't it make you sad to know that life
   D/F        D      E
Is more than who we are

Chorus

You grew up way too fast 
And now there's nothing to believe
And reruns all become our history 
A tired song keeps playing on a tired radio
And I won't tell no one your name 
And I won't tell em your name

 G          D/F           C
I think about you all the time
    Em        D        E   (PART 2)
But I don't need to sing
G                      D/F          C 
It's lonely where you are come back down
Em          D            E
And I won't tell em your name




Outro
e|---0----0---0---0---0---0---|
B|---0----0---0---0---0---0---|
G|---9/11-11--11--11--9---7---|
D|---9/11-11--11--11--9---7---|
A|---0----0---0---0---0---0---|
E|---0----0---0---0---0---0---|
            
Hard to play? Try these video lessons and learn fast. | Correct




comments powered by Disqus
↑ Back to top | Tablatures and chords are parodies/interpretations of the original songs. You may use it for private study, scholarship, research or language learning purposes only