>
 >
Wait

Wait Guitar Tabs

Good Shoes - Wait chords, tabs, tablatures, lyrics

Guitar lessons | Add/correct | Request | Top 50 tabs Artists:  A B C D E F G H I J K L M N O P Q R S T U V W X Y Z 0-9

Wait Guitar Tabs – Good Shoes

CD, Sheet music, Poster

Do you like Wait? Share with your friends now
Tabs
WAIT

The second Guitar is missing  in the chorus, its hard to tab
that - but i think its mostly the picking after the chorus
which guitar 1 does.


Chords:
   A  F#m  F#m* E E* Bm C#m C#m*
e|-5---2-----9--0-----7--4----9-----------------|
b|-5---2----10--0--9--7--5----9-----------------|
g|-6---2----11--1--9--7--6----9-----------------|
d|-7---4----11--2--9--9--6---11-----------------|
a|-7---4-----9--2--7--9--4---11-----------------|
E|-5---2--------0-----7-------9-----------------|


INTRO/VERSE:

Guitar 2:
Listen to the rhythm and sometimes he varies the last chord
Means he plays the C#m again)
e|-(7-7-77-77-7-7-77--9--9--9-9--9-9--9--9-9--9)-|
b|--7-7-77-77-9-9-99-10-10-1010-1010--9--9-9-10--|
g|--7-7-77-77-7-7-77-11-11-1111-1111--9--9-9-11--|
d|--9-9-99-99-9-9-99-11-11-1111-1111-11-1111-11--|
a|-----------------------------------------------|
E|-----------------------------------------------|

wait ive got something to say and
wait i think there is something going wrong
i know i know i know i know but then again i really really dont know

PRECHORUS:
Guitar 1+2:
e|-------------------------------------------|
b|-------------------------------------------|
g|--7-7-----7-7----7-7----7-7----------------|
d|--7-7-4---7-7-4--7-7-4--7-7-4-4------------|
a|--5-5-4---5-5-4--5-5-4--5-5-4-4------------|
E|--5-5-2---5-5-2--5-5-2--5-5-2-2------------|

At 0:30 min slightly in the background
e|-------------------------|
b|--------2--------2-------|
g|------2--------2---------|
d|--2-4------2-4-----------|
a|-------------------------|
E|-------------------------|

Guitar 1:
I really dont know in which order he plays the
Notes  ist too difficult.
e|------------------------------------------------------------|
b|------------------------------------------------------------|
g|------------------------------------------------------------|
d|------7-11-----11-----7-11-----11-----7-11-----11-----7-11--|
a|--7-9------7-9----7-9------7-9----7-9------7-9----7-9-------|
E|------------------------------------------------------------|


VERSE:
e|-(7-7-77-77-7-7-77--9--9--9-9--9-9--9--9-9--9)-|
b|--7-7-77-77-9-9-99-10-10-1010-1010--9--9-9-10--|
g|--7-7-77-77-7-7-77-11-11-1111-1111--9--9-9-11--|
d|--9-9-99-99-9-9-99-11-11-1111-1111-11-1111-11--|
a|-----------------------------------------------|
E|-----------------------------------------------|

wait stop look listen to what ive got to say everything around here seems to be going 
way i know i know i know i know but then again i really just dont care


PRECHORUS:
Guitar 1:
e|--------------------------------------------------|
b|--5-5--------------------------------5-5-1010-99--|
g|--6-6--------------1-1-66------------6-6-1111-99--|
d|--6-6-4------------2-2-77------------6-6-1111-99--|
a|--4-4-4------------2-2-77------------4-4--9-9-77--|
E|------2------------0-0-55-------------------------|

Guitar 2:
e|----------9--9--9----------12-12-12--9-9----------|
b|--5-5----10-10-10----------14-14-14--9-9-1010-99--|
g|--6-6----11-11-11--1-1-66--14-14-14--9-9-1111-99--|
d|--6-6-4--11-11-11--2-2-77--14-14-14-1111-1111-99--|
a|--4-4-4------------2-2-77-----------1111--9-9-77--|
E|------2------------0-0-55------------9-9----------|

CHORUS:
A              C#m       F#m                    E
  two time one two times one he shouted into his phone
A               C#m          F#m*                         E*
you just dont understand a thing i wish things had started before they finished

after chorus 1:
e|------------------------------------9-9-------|
b|------------------------------------9-9-------|
g|--7-4-6------------------------7----9-9-------|
d|--7-4-6-7--3 times last time:--7-9-1111-------|
a|--5-2-4-7----------------------5-9------------|
E|--------5------------------------7------------|

OUTRO:
e|------------------------------------------------------------|
b|------------------------------------------------------------|
g|----6-----7-4-66---6-----7-4-1-(6)--------------------------|
d|--7-6-4-7-7-4-66-7-6-4-7-7-4-2-(7)--------------------------|
a|--7-4-4-7-5-2-44-7-4-4-7-5-2-2-(7)--------------------------|
E|--5---2-5--------5---2-5-----0(5)--------------------------|





Comments


Popular Good Shoes tabs & chords
Never Meant To Hurt You Chords
Small Town Girl Chords
All In My Head Tabs
All In My Head 2 Tabs
Blue Eyes Tabs
Never Meant To Hurt You Tabs
City By The Sea Ukulele
Morden Ukulele
Small Town Girl Ukulele
Things To Make And Do Ukulele


Song lyrics



↑ Back to top | Tablatures and chords are parodies/interpretations of the original songs. You may use it for private study, scholarship, research or language learning purposes only
© 2014 AZChords.com Contact us | Privacy policy | DMCA | Add/correct tabs | Request tabs | Top 50 tabs