» » »

Good Shoes, Times Change Bass tabs (ver.1)

Artists:  A B C D E F G H I J K L M N O P Q R S T U V W X Y Z # 

Times Change Bass tabs (ver.1)

Good Shoes Tabs
 Rating:
4/5 (4 votes)
Times Change lessons Tabs too difficult? Try these video lessons and learn fast
1
                ----------------------------------------------------------------------------
----------------------------------------------------------------------------



Hi,I know this tab is definitely right.have fun!

Verse 1
G|---------------------------------------------| 
D|-7--77----------9---799---------5-5775-7-997-|
A|--79---7----77----9----9---799---------------|
E|---------79--------------9-------------------|

G|-11----811------8118---|
D|----11-----1111--------|
A|-----------------------|
E|-----------------------|

Verse 2
G|---------------------------------------------------13--1013------101310-|
D|-9---99----------11---911----------7-7997-9-911119---13-----1313--------|
A|--911---9-----99----11----11---99---------------------------------------|
E|----------911---------------11------------------------------------------|

G|13--1013------101310-|
D|---13-----1313-------|
A|---------------------|
E|---------------------|

Bridge
G|----11-13-------------|
D|-11-------------------|
A|----------------------|  4x
E|----------------------|

Verse 3
G|---------------------------------------------------------------------|
D|-11----1111------------13----111313-----------9-911119-11-11131311---|
A|---1113-----11----1111---13--------13--111313------------------------|
E|--------------1113-------------------13------------------------------|

G|------------------------|
D|-15---1215------121512--|
A|---15------1515---------|
E|------------------------|

Bridge

Verse 4
G|------------------------------------------------------------------------|
D|-13----1313----------15--131515------------11-11131311-13-13151513------|
A|---1315----13----1313--15------15--131515-------------------------------|
E|-------------1315----------------15-------------------------------------|

Refrain
G|--------------98--------1198----------------------|
D|-----------910---------9-----------911------------|
A|--------910---------910---------911----8--5-------|  2x
E|-9-9-912---------912---------912------8--5---7-7--|

Then Again:
Verse 2
Verse 3
Verse 4
Refrain
Bridge

| /  slide up
| \  slide down
            
Submit corrections

comments powered by Disqus
↑ Back to top | Good Shoes Bass for Times Change. Lyrics for acoustic guitar and electric guitar. 1 Tablatures and chords are parodies/interpretations of the original songs. You may use it for private study, scholarship, research or language learning purposes only