>
 >
Sofia

Sofia Bass Tabs

Good Shoes - Sofia chords, tabs, tablatures, lyrics

Guitar lessons | Add/correct | Request | Top 50 tabs Artists:  A B C D E F G H I J K L M N O P Q R S T U V W X Y Z 0-9

Sofia Bass Tabs – Good Shoes

CD, Sheet music, Poster

Do you like Sofia? Share with your friends now
Bass Tabs
----------------------------------------------------------------------------
			     Sofia  Good Shoes
----------------------------------------------------------------------------


Tuning: STANDARD

My First tab! Great song by a great band:


Intro

G|-9-8-------------13-13-13-----8----6-------1/9---9-8-------------13-13-13-|
D|-----11-9-9/11------------6----4-----2-2------------11-9-9/11-----------|
A|--------------------------------------------------------------------------|
E|--------------------------------------------------------------------------|

-------8----6--------------1-4----------------1-4----|
-----6----4----2--2-2-2-2-------2------2-2-2---------|
----------------------------------2--4---------------|
-----------------------------------------------------|


Verse

G|-9-8-------------13-13-13-----8----6-------1/9---9-8-------------13-13-13-|
D|-----11-9-9/11------------6----4-----2-2------------11-9-9/11-----------|
A|--------------------------------------------------------------------------|
E|--------------------------------------------------------------------------|

-------8----6--------------1-4----------------1-4----|
-----6----4----2--2-2-2-2-------2------2-2-2---------|
----------------------------------2--4---------------|
-----------------------------------------------------|


Chorus

G|-------9----13-11-11--13-11-11--13-11-11--13-11-11--13-11-13--------------|
D|-11-----------------------------------------------------------11--14--11--|
A|--------------------------------------------------------------------------|
E|--------------------------------------------------------------------------|

---------------------------------------------9----13-11-11--13-11-11--13-11-|
14-11--14--11-14--9--9-9--6--4-6-4-6--/11-----------------------------------|
----------------------------------------------------------------------------|
----------------------------------------------------------------------------|

11-13-11-11--13-11-13-------------------------------------------------------|
-----------------------11--14--11-14-11--14--11-14--9--9-9--6-6-4-4-2-2-2--|
----------------------------------------------------------------------------|
----------------------------------------------------------------------------|

----1-4--------------1-4----|          ----1-4--------------------------|
2-2------2--2-2-2-2---------|          2-2------2--2-2-2-2/6--6/9-------|
----------------------------|          ---------------------------------|
----------------------------|before solo: ------------------------------|


Solo

G|----9-11-9---------9-11--9------13-16-13--------13-16--13---|
D|-11---------11--11-----------14----------14--14-------------|
A|------------------------------------------------------------|
E|------------------------------------------------------------|X3

On fourth:
G|----9-11-9---------9-11--9-----------------------------------1-4----------|
D|-11---------11--11-----------9--9-9--6-6-4-4-2-2-----2-2-2-------2-----2-|
A|--------------------------------------------------2-4---------------2-4---|
E|--------------------------------------------------------------------------|

-----1-4----|
2-2---------|
------------|
------------|


Final Chorus

G|-------9----13-11-11--13-11-11--13-11-11--13-11-11--13-11-13--------------|
D|-11-------------------------------------------------------------11-14--11-|
A|--------------------------------------------------------------------------|
E|--------------------------------------------------------------------------|

---------------------------------------------9----13-11-11--13-11-11--13-11-|
14-11--14--11-14--9--9-9--6--4-6-4-6--/11-----------------------------------|
----------------------------------------------------------------------------|
----------------------------------------------------------------------------|

11-13-11-11--13-11-13-------------------------------------------------------|
-----------------------11--14--11-14-11--14--11-14--9--9-9--6-6-4-4--2------|
-----------------------------------------------------------------------2-4--|
----------------------------------------------------------------------------|

------1-4---------------1-4-----------------1-4---------------1-4/9--|
2-2-2-------2-----2-2-2------2-------2-2-2-------2-----2-2-2--------|
--------------2-4-----------------2-4---------------2-4--------------|
---------------------------------------------------------------------|

ORDER:

Intro
Verse X2
Chorus
Verse
Chorus
Solo
Final Chorus

| /  slide up
| \  slide down
| h  hammer-on
| p  pull-off
| ~  vibrato
| +  harmonic
| x  Mute note
============================================================================





Comments


Popular Good Shoes tabs & chords
Morden Chords
Photos On My Wall Chords
The Way My Heart Beats Chords
All In My Head 2 Tabs
In The City 1 Tabs
Photos On My Wall Tabs
Wait Tabs
Morden Ukulele
Photos On My Wall Ukulele
Sophia Ukulele


Song lyrics



↑ Back to top | Tablatures and chords are parodies/interpretations of the original songs. You may use it for private study, scholarship, research or language learning purposes only
© 2014 AZChords.com Contact us | Privacy policy | DMCA | Add/correct tabs | Request tabs | Top 50 tabs