» » »

Good Shoes, All In My Head Bass tabs (ver.1)

Artists:  A B C D E F G H I J K L M N O P Q R S T U V W X Y Z # 

All In My Head Bass tabs (ver.1)

Good Shoes Tabs
 Rating:
4/5 (4 votes)
All In My Head lessons Tabs too difficult? Try these video lessons and learn fast
1
                ----------------------------------------------------------------------------
----------------------------------------------------------------------------


Tuning: Standard

Good Shoes – All In My Head


Intro:

G|-----------------9-9-----------------------------------------------------|
D|-2-2--2-2--2-2~~~--------------------------------------------------------|
A|-------------------------------------------------------------------------|
E|-------------------------------------------------------------------------|

Verse:

G|-9-99-999----------9-99-999-------------------------------------|
D|----------9-99-999----------9-99-999-11-1111-1111-9-99-99-------|
A|----------------------------------------------------------------| 2x
E|----------------------------------------------------------------|

Chorus:

G|----------------------------------------------11--6--------99----|
D|-2-2222~~~9-9999-----2-2222~~~9-9999---14--9-------------66------|
A|----------------------------------------------------77-99--------|
E|-----------------------------------------------------------------|

Verse:

G|-9-99-999----------9-99-999-------------------------------------|
D|----------9-99-999----------9-99-999-11-1111-1111-9-99-99-------|
A|----------------------------------------------------------------| 2x
E|----------------------------------------------------------------|

Chorus:

G|--------------------------------------------------11--6--------------|
D|-2-2222~~~9-9999----2-2222~~~9-9999------14--9-----------------------|
A|---------------------------------------------------------------------|
E|---------------------------------------------------------------------|

G|-------------------------------16-16161616------------11--6----------|
D|-2-2222~~~9-9999--14-14141414----------------14--9-------------------|
A|---------------------------------------------------------------------|
E|---------------------------------------------------------------------|

G|----------99-----|
D|-------66--------|
A|-77-99------7777-|
E|-----------------|

Solo:

G|-99999999---------99999999------------------------------------|
D|---------77777777---------9999-7777----6-7-99-7-6-------------|
A|------------------------------------7-9-----------9-----------|
E|--------------------------------------------------------------|

G|-99-1111-1313----9-7-6---|
D|-----------------------9-|
A|-------------------------|
E|-------------------------|

Verse:

G|-9-99-999----------9-99-999-------------------------------------|
D|----------9-99-999----------9-99-999-11-1111-1111-9-99-99-------|
A|----------------------------------------------------------------| 2x
E|----------------------------------------------------------------|

Chorus:

G|--------------------------------------------------11--6--------------|
D|-2-2222~~~9-9999----2-2222~~~9-9999------14--9-----------------------|
A|---------------------------------------------------------------------|
E|---------------------------------------------------------------------|

G|-------------------------------16-16161616------------11--6----------|
D|-2-2222~~~9-9999--14-14141414----------------14--9-------------------|
A|---------------------------------------------------------------------|
E|---------------------------------------------------------------------|


G|----------9999---|
D|-------66--------|
A|-77-99-----------|
E|-----------------|

G|------16--16---------------16--16--------9-----9-----9--------------|
D|~~~14---14--14---14-141414---14--14---2~~---2~~---2~~----2----------|
A|--------------------------------------------------------------------|
E|--------------------------------------------------------------------|


| /  slide up
| \  slide down
| h  hammer-on
| p  pull-off
| ~  vibrato
| +  harmonic
| x  Mute note
============================================================================
            
Submit corrections

comments powered by Disqus
↑ Back to top | Good Shoes Bass for All In My Head. Lyrics for acoustic guitar and electric guitar. 1 Tablatures and chords are parodies/interpretations of the original songs. You may use it for private study, scholarship, research or language learning purposes only