» » »

Trinity Bass tabs (ver.1)

Artists:  A B C D E F G H I J K L M N O P Q R S T U V W X Y Z # 

Trinity Bass tabs (ver.1)

Good Girls Dont Say No
Rating:
0/5 (0 votes)

Hard to play? Try these video lessons and learn fast.
                Verse x2
G|---------|
D|---5-3---|
A|-5-----5-|
D|---------|

Chorus x2
G|------------|
D|------------|
A|-5----------|
D|---5-8-5-33-|

Verse x4
G|---------|
D|---5-3---|
A|-5-----5-|
D|---------|

Chorus x4
G|------------|
D|------------|
A|-5----------|
D|---5-8-5-33-|

Bridge x4
G|----------------------------------------|---|
D|----------------------------------------|---|
A|----------------------------------------|---|
D|-77--777--33--333--22--2-2--00--0h2h3p2-|-7-|
            
Hard to play? Try these video lessons and learn fast. | Correct




comments powered by Disqus
↑ Back to top | Tablatures and chords are parodies/interpretations of the original songs. You may use it for private study, scholarship, research or language learning purposes only