» » »

Tabla Rasa Tabs (ver.1)

Artists:  A B C D E F G H I J K L M N O P Q R S T U V W X Y Z # 

Tabla Rasa Tabs (ver.1)

Good Girls Dont Say No
Rating:
0/5 (0 votes)

Hard to play? Try these video lessons and learn fast.
                Band - Good Girls Don't Say No
Song - Tabla Rasa rhythm guitar tabs
BPM - 120
Intro x4
e|-------|
B|-------|
G|-6-9-7-|
D|-4-----|
A|-4-7-5-|
D|-4-----|

Verse x4
e|-----------------------|
B|-----------------------|
G|-----------------------|
D|-4-7-6-7-6-7-11-9-11-9-|
A|-4-4-4-4-4-7--7-7--7-7-|
D|-4-4-4-4-4-7--7-7--7-7-|
pm----------------------|

Pre-Chorus (unmuted this time. oh so difficult) x2
e|-----------------------|
B|-----------------------|
G|-----------------------|
D|-4-7-6-7-6-7-11-9-11-9-|
A|-4-4-4-4-4-7--7-7--7-7-|
D|-4-4-4-4-4-7--7-7--7-7-|

Chorus x4
e|-------|
B|-------|
G|---9-7-|
D|-4-----|
A|-4-7-5-|
D|-4-----|

Verse x4
e|-----------------------|
B|-----------------------|
G|-----------------------|
D|-4-7-6-7-6-7-11-9-11-9-|
A|-4-4-4-4-4-7--7-7--7-7-|
D|-4-4-4-4-4-7--7-7--7-7-|
pm----------------------|

Pre-Chorus (unmuted) x2
e|-----------------------|
B|-----------------------|
G|-----------------------|
D|-4-7-6-7-6-7-11-9-11-9-|
A|-4-4-4-4-4-7--7-7--7-7-|
D|-4-4-4-4-4-7--7-7--7-7-|

Chorus x4
e|-------|
B|-------|
G|---9-7-|
D|-4-----|
A|-4-7-5-|
D|-4-----|

Chorus pt. II x2
e|--------------|
B|--------------|
G|---9-14---9-7-|
D|-4-x--x-4-x-x-|
A|-4-7-12-4-7-5-|
D|-4------4-----|

Bridge x3
e|--------------------------------------------|
B|--------------------------------------------|
G|--------------------------------------------|
D|-444-4-4-4--777-7-7-7--222-2-2-2--000-0-0-0-|
A|-444-4-4-4--777-7-7-7--222-2-2-2--000-0-0-0-|
D|-444-4-4-4--777-7-7-7--222-2-2-2--000-0-0-0-|
pm ***   *    ***   *    ***   *    ***   *

Chorus x4
e|-------|
B|-------|
G|---9-7-|
D|-4-x-x-|
A|-4-7-5-|
D|-4-----|

Chorus pt. II 
e|--------------------------------------------------|
B|--------------------------------------------------|
G|---9-14-12----9-7-5----9-14-12----14-12-9-7-5-----|
D|-4-x--x--x--4-x-x-x--4-x--x--x--4--x--x-x-x-x--4~-|
A|-4-7-12-10--4-7-5-3--4-7-12-10--4-12-10-7-5-3--4~-|
D|-4----------4--------4----------4--------------4~-|
            
Hard to play? Try these video lessons and learn fast. | Correct




comments powered by Disqus
↑ Back to top | Tablatures and chords are parodies/interpretations of the original songs. You may use it for private study, scholarship, research or language learning purposes only