» » »

Good Girls Dont Say No, Glory Never Fades Tabs (ver.1)

Artists:  A B C D E F G H I J K L M N O P Q R S T U V W X Y Z # 

Glory Never Fades Tabs (ver.1)

Good Girls Dont Say No Tabs
 Rating:
4/5 (4 votes)
Glory Never Fades lessons Tabs too difficult? Try these video lessons and learn fast
1
                Band - Good Girls Don't Say No
Song - Glory Never Fades
Tuning - Drop D DADGBe

Glory Never Fades rhythm guitar tabs

Intro x2
e|--------------------------|
B|--------------------------|
G|-7-6-7-6-7-6--2-1-2-1-2-1-|
D|-9-9-9-9-9-9--4-4-4-4-4-4-|
A|--------------------------|
D|--------------------------|

cont.                   repeat four times(play the D and C# chords with upstrokes)
e|--------|-------------------------------------------|
B|--------|-------------------------------------------|
G|-9------|-------------77-7-6------------------------|
D|-7-9-10-|-0h4-4444-44-xx-x-x--0h2-2222-22--55-5p4-4-|
A|---7--8-|-0h4-4444-44-55-5-4--0h2-2222-22--22-2-2-5-|
D|--------|-0h4-4444-44---------0h2-2222-22--22-2-2-2-|
                ****                ****
Intro pt. II x2
e|-------------------------------------------------------------------------------------------|----|
B|-------------------------------------------------------------------------------------------|----|
G|---------------------77-7-77-7-77-7-77-7-44-4-44-4-44-4-44-4-1212-12-1212-12-111111-141414-|----|
D|-44-4-44-4-44-4-44-4-77-7-77-7-77-7-77-7-44-4-44-4-44-4-44-4--x-x--x--x-x--x-x-x-x---x-x-x-|-4~-|
A|-44-4-44-4-44-4-44-4-55-5-55-5-55-5-55-5-22-2-22-2-22-2-22-2-1010-10-1010-10-9-9-9--121212-|-4~-|
D|-44-4-44-4-44-4-44-4-----------------------------------------------------------------------|-4~-|
   **   **   **   **   **   **   **   **   **   **   **   **    * *     * *           play after second time

Verse
         repeat four times
e|------------------------------|-----|
B|------------------------------|-----|
G|--6---6----6-----6---7---6----|-7-8-|
D|---7---7----7-----7---0---7---|-x-x-|
A|------------------------------|-5-6-|
D|-4---4---4----4-0---0---0---0-|-----|

Pre-Chorus x2 (play the D5 and C#5 chords with upstrokes)
e|-------------------------------|
B|-------------------------------|
G|---------7777/6---------7777/6-|
D|-4444-44-7777/6-2222-22-7777/6-|
A|-4444-44-5555/4-2222-22-5555/4-|
D|-4444-44--------2222-22--------|
   ****           ****

Chorus x2
e|----------------|
B|----------------|
G|---7-3\4--------|
D|-4-7-3\4-1\2-3\-|
A|-4-5-1\2-1\2-3\-|
D|-4-------1\2-3\-|

Intro riff x2
e|-------------------------------------------------------------------------------------------|----|
B|-------------------------------------------------------------------------------------------|----|
G|---------------------77-7-77-7-77-7-77-7-44-4-44-4-44-4-44-4-1212-12-1212-12-111111-141414-|----|
D|-44-4-44-4-44-4-44-4-77-7-77-7-77-7-77-7-44-4-44-4-44-4-44-4--x-x--x--x-x--x-x-x-x---x-x-x-|-4~-|
A|-44-4-44-4-44-4-44-4-55-5-55-5-55-5-55-5-22-2-22-2-22-2-22-2-1010-10-1010-10-9-9-9--121212-|-4~-|
D|-44-4-44-4-44-4-44-4-----------------------------------------------------------------------|-4~-|
   **   **   **   **   **   **   **   **   **   **   **   **    * *     * *           play after second time

Verse II
         repeat four times
e|------------------------------|-----|
B|------------------------------|-----|
G|--6---6----6-----6---7---6----|-7-8-|
D|---7---7----7-----7---0---7---|-x-x-|
A|------------------------------|-5-6-|
D|-4---4---4----4-0---0---0---0-|-----|

Pre-Chorus x2 (play the D5 and C#5 chords with upstrokes)
e|-------------------------------|
B|-------------------------------|
G|---------7777/6---------7777/6-|
D|-4444-44-7777/6-2222-22-7777/6-|
A|-4444-44-5555/4-2222-22-5555/4-|
D|-4444-44--------2222-22--------|
   ****           ****

Chorus x2
e|----------------|
B|----------------|
G|---7-3\4--------|
D|-4-7-3\4-1\2-3\-|
A|-4-5-1\2-1\2-3\-|
D|-4-------1\2-3\-|

Bridge (strum these chords)
e|----------------|
B|----------------|
G|-11-11-7-4-5-11-|
D|--x--x-x-x-x--x-|
A|--9--9-5-2-3--9-|
D|-----0-0-0-0--0-|
            
Submit corrections

comments powered by Disqus
↑ Back to top | Good Girls Dont Say No Tabs for Glory Never Fades. Lyrics for acoustic guitar and electric guitar. 1 Tablatures and chords are parodies/interpretations of the original songs. You may use it for private study, scholarship, research or language learning purposes only