» » »

Good Charlotte, The Anthem Bass tabs (ver.1)

Artists:  A B C D E F G H I J K L M N O P Q R S T U V W X Y Z # 

The Anthem Bass tabs (ver.1)

Good Charlotte Tabs
Rating:
0/5 (0 votes)
The Anthem lessons Tabs too difficult? Try these video lessons and learn fast
                Good Charlotte

INTRO:
G------------------------------------------------------------------------------------------ 
D------------------------------------------------------------------------------------------ 
A4-44-4--4--4-6-8------------99-8-6----------33-4-6----------6644334/6---------------------
E--------------------4-44--4---------2-22--2---------4-44--4------------------------------- 

VERSE
 x 2

G------------------------------------------------------------------------------------------
D------------------------------------------------------------------------------------------
A444---4-----------444---4------------444---4----------------------------------------------
E---------4-44-444----------2-22-222-----------44--44-22222222222222-----------------------

PRE-CHORUS:
(do you really wanna be like them.........)
G------------------------------------------------------------------------ 
D------------------------------------------------------------------------
A11111111----------4444444444444444-11111111-----------------------------
E--------22222222---------------------------22222222-4444444444444444----


CHORUS:

G-------------------------------------------------------------------------
D-------------------------------------------------------------------------
A4------------------4-----------------4-----------------4-----------------
E----44-22-2-4444------44-22-2-5544------44-22-2-4444------44-22----------

BRIDGE: 
(shake it once thats fine....................)

G-----------------------------------------------------------------------
D-----------------------------------------------------------------------
A------------------------------------444444-----------------------------
E666666-444444-222222-444444-666666-----------444444444444--------------

GUITAR SOLO:

G-------------------------------------------------------------------------------------
D-------------------------------------------------------------------------------------
A8--8--68-6--66-666-8--8--68-9-99-9-8-6- 8--8--68-6--66-666-44-4--66-6--88-8--98-98-98
E-------------------------------------------------------------------------------------


OUTRO: 
(Guitar plays for awhile then the bass comes in with this and it repeats until the 
end of the song)

G:--------------------------------------:
D:--------------------------------------:
A:4-----------------4-------------------:
E:----44-22-2-4444------44-22-2-5544----:

I got tired of waiting for someone to tab this song so I did it myself. 
This song was incredibly easy to figure out but took a very long time to type up.
If you cant figure the rythm out just listen to the song 
It's really hard to show rythm on a tab. 
Have Fun. 
            
Submit corrections

comments powered by Disqus
↑ Back to top | Good Charlotte Bass for The Anthem. Lyrics for acoustic guitar and electric guitar. Tablatures and chords are parodies/interpretations of the original songs. You may use it for private study, scholarship, research or language learning purposes only