>
 >
You Think It's A Joke

You Think It's A Joke Guitar Tabs

Goldfinger - You Think It's A Joke chords, tabs, tablatures, lyrics

Guitar lessons | Add/correct | Request | Top 50 tabs Artists:  A B C D E F G H I J K L M N O P Q R S T U V W X Y Z 0-9

You Think It's A Joke Guitar Tabs – Goldfinger

CD, Sheet music, Poster

Do you like You Think It's A Joke? Share with your friends now
Tabs


Intro
Wah Pedal & Wet Effect
e|---9--|--13--12--8--10~~~~------|
B|---9--|---------------------10--|
G|--10--|-------------------------|
D|------|-------------------------|
A|------|-------------------------|
E|------|-------------------------|

e|--------------------------------------|
B|--------------------------------------|
G|--------------------------------------|
D|--7-7-7--5--7-7-7--10/9--7-7-7--5--7--|
A|--5-5-5--3--5-5-5---8/7--5-5-5--3--5--|
E|--------------------------------------|

Chorus
e|--------------------------------------|-------|
B|--------------------------------------|-------|
G|--------------------------------------|-------|
D|--7-7-7-7-----------------------------|--7//--|
A|--5-5-5-5--7-7-7-7--5-5-5-5--7-7-7-7--|--5//--|
E|-----------5-5-5-5--3-3-3-3--5-5-5-5--|-------|

Pre-Chorus
e|------------------|
B|------------------|
G|------------------|     Played before 3rd Chorus Palm Muted.
D|------------------|     Played before Outro Un-Palm Muted
A|--8-8--8--7-7--7--|
E|--6-6--6--5-5--5--|
    ......pm......

Chorus
e|--------------------------------------|-------|
B|--------------------------------------|-------|
G|--------------------------------------|-------|
D|--7-7-7-7-----------------------------|--7//--|
A|--5-5-5-5--7-7-7-7--5-5-5-5--7-7-7-7--|--5//--|
E|-----------5-5-5-5--3-3-3-3--5-5-5-5--|-------|

Solo  x2                                          1stEnding      2ndEnding      Fall
e|----------------------------------------------|------------|---------------|--------|
B|o---------------------------------------------|-----------o|---------------|--------|
G|---7-7-7-7-7--9-9-9-9-9--10-10-10-10-10--9-7--|--9-9-9-9---|--12-12-12-12--|--------|
D|----------------------------------------------|------------|---------------|--7///--|
A|o--5-5-5-5-5--7-7-7-7-7---8--8--8--8--8--7-5--|--7-7-7-7--o|--10-10-10-10--|--5///--|
E|----------------------------------------------|------------|---------------|--------|

Breakdown  x2                                         Repeat   Break   Fall
e|-------------------------------------------------------------|---------------|--------|
B|-------------------------------------------------------------|---------------|--------|
G|*o----------------------------------------------------------*|--------------o|--------|
D|----7-7-7-7-7----------------------------10-10-9-9-7-7-5-5---|--10-10--9-9---|--7///--|
A|*o--5-5-5-5-5--5/7-7-7-7-7--3/5-5-5-5-5---8--8-7-7-5-5-3-3--*|---8--8--7-7--o|--5///--|
E|---------------3/5-5-5-5-5--1/3-3-3-3-3----------------------|---------------|--------|
                                           .......p.m....... 
Outro 
e|--------------------------------------|
B|--------------------------------------|
G|--------------------------------------|
D|--7-7-7--5--7-7-7--10/9--7-7-7--5--7--|
A|--5-5-5--3--5-5-5---8/7--5-5-5--3--5--|
E|--------------------------------------|

e|----------------------------------------------------|
B|----------------------------------------------------|
G|-7-7-7--5--7-7-7--10/9--7-7-7--5--7-7--7-7--10--12--|
D|-7-7-7--5--7-7-7--10/9--7-7-7--5--7-7--7-7--10--12--|
A|-5-5-5--3--5-5-5---8/7--5-5-5--3--5-5--5-5---8--10--|
E|-5-5-5--3--5-5-5---8/7--5-5-5--3--5-5--5-5---8--10--|

Ok, so yeah, I realize my first tab for this song was wretched, 
and gave a vague outline of the song, but this version is 95% correct!
Only thing is I can't get that ***ed Intro down!!
Its all good, just screw around with what I have written out!
You'll do fine!
Later on!





Comments


Popular Goldfinger tabs & chords
Is She Really Going Out With Him? Bass Tabs
Happy Chords
Pick A Fight Chords
Superman 2 Chords
20 Cent Goodbye Tabs
99 Red Balloons 3 Tabs
Mable 1 Tabs
Miles Away 1 Tabs
My Head Tabs
Nothing To Prove Tabs


Song lyrics



↑ Back to top | Tablatures and chords are parodies/interpretations of the original songs. You may use it for private study, scholarship, research or language learning purposes only
© 2014 AZChords.com Contact us | Privacy policy | DMCA | Add/correct tabs | Request tabs | Top 50 tabs