» » »

Goldfinger, Youth Tabs (ver.1)

Artists:  A B C D E F G H I J K L M N O P Q R S T U V W X Y Z # 

Youth Tabs (ver.1)

Goldfinger Tabs
Rating:
0/5 (0 votes)
Youth lessons Tabs too difficult? Try these video lessons and learn fast
                Verse 1                                    ...so now I know  
e|---------------------------------------------------------------------------|
B|---7--------9---------7-----------------------2----------------------------|
G|--7----6---9-----4---7-----6----4------------2-----------------------------|
D|-7----7---9-----5---7-----7----5------------2------------------------------|
A|5----7---7-----5---5-----7----5------------0-------------------------------|
E|----5---------3---------5----3---------------------------------------------|
  x5  x5   x5   x5   x5   x5   x10           x20

  Chorus
e|---------------------------------------------------------------------------|
B|---7---------9---------7---------------------------------------------------|
G|--7-----6---9-----4---7-----6----8----6------------------------------------|
D|-7-----7---9-----5---7-----7----9----5-------------------------------------|
A|5-----7---7-----5---5-----7----9----5--------------------------------------|
E|-----5---------3---------5----7----3---------------------------------------|
  x5   x5   x5   x5   x5   x5   x5   x5  

e|-----------------            ----------------------------------------------|
B|---2-------------            ----------------------------------------------|
G|--2--------------            ----------------------------------------------|
D|-2---------------            7-7-7-7-5-4-4/5-4-0-2-------------------------|
A|0----------------            ----------------------------------------------|
E|-----------------            ----------------------------------------------|
  x20                           (guitar 2)

Verse 2 (played the same as verse 1 with the addition of guitar 2)
...but now Im here                                  ...now I know
e|---------------------------------------------------------------------------|
B|---------------------------------------------------------------------------|
G|11--9--12--11--9--7------------------------------------9-------------------|
D|---------------------------------------------------------------------------|
A|---------------------------------------------------------------------------|
E|---------------------------------------------------------------------------|
  x5 x5  x10 x5  x5 x10                                 x20
  (guitar 2)

Chorus

Bridge
  Don't want it back...             ....I did when I was a kid
e|---------------------------------------------------------------------------|
B|---4----7----12------------------------------------------------------------|
G|--4----7---11-------------------------5------------------------------------|
D|-4----7---9--------------------------4-------------------------------------|
A|2----5------------------------------4--------------------------------------|
E|-----------------------------------2---------------------------------------|
  x5   x5   x10                      x16

Solo
e|---------------------------------------------11----------------------------|
B|10-10-10-10-5-8-8-8-7-5-3-0-7-7-7-5-7-5-3---12-----------------------------|
G|-------------------------------------------12------------------------------|
D|------------------------------------------12-------------------------------|
A|---------------------------------------------------------------------------|
E|---------------------------------------------------------------------------|
                                            (*)

  In my life....
e|---------------------------------------------------------------------------|
B|--------7-------9--------7--------9-------12-------------------------------|
G|-------7-------9--------7--------9------12---------------------------------|
D|------7-------9--------7--------9-----12-----------------------------------|
A|-5---5-------7----5---5----7---7----10-------------------------------------|
E|----------0----------------------------------------------------------------|


Chorus (with distortion) - when he says "here" during the first "except I
noticed that your still here" guitar 2 should do a pickslide.

  ...so now I know
e|---------------------------------------------------------------------------|
B|---2-----6-----------------------------------------------------------------|
G|--2-----6------------------------------------------------------------------|
D|-2-----6-------------------------------------------------------------------|
A|0-----4--------------------------------------------------------------------|
E|---------------------------------------------------------------------------|
  x15   x3 (that last part actually goes down instead of up but it still  
		sounds fine)
            
Submit corrections

comments powered by Disqus
↑ Back to top | Goldfinger Tabs for Youth. Lyrics for acoustic guitar and electric guitar. Tablatures and chords are parodies/interpretations of the original songs. You may use it for private study, scholarship, research or language learning purposes only