» » »

Walking In The Dark Tabs (ver.1)

Artists:  A B C D E F G H I J K L M N O P Q R S T U V W X Y Z # 

Walking In The Dark Tabs (ver.1)

Goldfinger
Rating:
0/5 (0 votes)

Tabs too difficult? Try these video lessons and learn fast.
                tuning: standard, low to high (E,A,D,G)

h=hammer on
\=slide down
/=slide up
_=let note run
S=slap
P=pop
X=muted note

listen to song for timing, length of the run on notes & placement of rests

|---0h2--0h2-----0074--0h2--0h2---------|
|-22---22---004h5----22---22---0040-----|
|----------------------------------33---|
|------------------------------------7\-|

|---0h2--0h2-----0074--0h2--0h2---------|
|-22---22---004h5----22---22---0040-----|
|----------------------------------33---|
|------------------------------------7\-|

|----------------------------------------|
|-----------004h5--------------0040--5---|
|------------------52--------------/3----|
|-003h5003h5-----33--003h5003h5-------7\-|

|--------------------4-2-0---2------|
|------------------2-------00-0--5--|
|---2-0---5--------------------33-3-|
|-0-----3---2-3-2/------------------|

|---------------------4-2-0---2------|
|------------4-5-4/-2-------00-0--5--|
|-/7-----2-5--------------------33-3-|
|----0-3-----------------------------|

|---------------------4-2-0---2------|
|-----------445544/-2-------00-0--5--|
|-----0-2-55--------------------33-3-|
|-0-3--------------------------------|

|---------------------4-2-0---2------|
|-------------------2-------00-0--5--|
|-/7-2-0---5--------------------33-5-|
|--------3---2-3-2/------------------|

|---0h2--0h2-----0074--0h2--0h2---------|
|-22---22---004h5----22---22---0040-----|
|----------------------------------33---|
|------------------------------------7\-|

|--------------------4-2-0---2------|
|------------------2-------00-0--5--|
|-----0-2-5--------------------33-3-|
|-0-3-------2-3-2/------------------|

|--------------------4-2-0---2------|
|-2----------------2-------00-0--5--|
|---2-0---5--------------------33-3-|
|-------3---2-3-2/------------------|

|-----1---------------1------------|
|---2---2-----1-----2---2-----1111-|
|-4---------2---2-4---------2------|
|---------4---------------4--------|

|-----1-----------------------|
|---2---2-----1---------------|
|-4---------2---2-0_-0_-0_-2_-|
|---------4-------------------|

|-----------------------------------------|
|-----------004h5--------------0040--5--5-|
|------------------52--------------/3-----|
|-003h5003h5-----33--003h5003h5-------7\--|

|---------------------------------|
|-----------004h5-5-5-------------|
|----------------3-------------33-|
|-003h5003h5-------7-003h5003h5---|

|---0h2--0h2----0074--0h2--0h2---------|
|-22---22---004/----22---22---0040-----|
|---------------------------------33---|
|-----------------------------------7\-|

|---------------------4-2-0---2------|
|-2---------4-5-4\2-2-------00-0--5--|
|-------2-5---------------------33-3-|
|---0-3------------------------------|

|---------------------4-2-0---2------|
|------------4-5-4/-2-------00-0--5--|
|-/7-2-0---5--------------------33-3-|
|--------3---------------------------|

                          SSSPSS
|-----1---------------1----------|
|---2---2-----1-----2---2----6---|
|-4---------2---2-4--------------|
|---------4---------------444-44-|

|-----1----------------------------|
|---2---2-----1--------------------|
|-4---------2---2-0000000022222222-|
|---------4------------------------|

|---------------------------------------|
|-----------004h5--------------0040-5-5-|
|------------------52--------------3----|
|-003h5003h5-----33--003h5003h5------7--|

|---------------------------------------|
|-----------004h5--------------0040-5-5-|
|------------------52--------------3----|
|-003h5003h5-----33--003h5003h5------7--|

|-------------------------------------|
|-22222222004h5----222222220040--5--5-|
|----------------52------------/3-----|
|--------------33-----------------/7--|

|----------------------------|
|-22222222004h5----22222222--|
|----------------52--------3-|
|--------------33------------|

                              SPS SPS
|------------------------------7---5--|
|-22--55--22------22--55--22----------|
|-------22----5533------22----5-5-3-3-|
|-------------------------------------|

                               SPSSSPSS
|-------4-----------------------7---5---|
|-22--55--22-------22--55--22-----------|
|--------2----5--33------22----5-XX3-XX-|
|--------------5\-----------------------|

                              SPSSSPS
|-------------------------------------------|
|-------------------------------------------|
|-------22----5533------22----55XX33X-0/677-|
|-00--33--00------00--33--00----------------|

|---0h2--0h2-----0074--0h2--0h2---------|
|-22---22---004h5----22---22---0040-----|
|----------------------------------33---|
|------------------------------------7\-|

|---0h2--0h2-----0074--0h2--0h2---------|
|-22---22---004h5----22---22---0040-----|
|----------------------------------33---|
|------------------------------------7\-|

|-----------------------------------------|
|-----------004h5--------------0040--5--5-|
|------------------52--------------/3-----|
|-003h5003h5-----33--003h5003h5-------/7--|

|---------------------------------------|
|-----------004h5-5-5----------0040-5-5-|
|----------------3-----------------3----|
|-003h5003h5-------7-003h5003h5------7--|

|---0h2--0h2-----0074--0h2--0h2-------------|
|-22---22---004h5----22---22---0040--5--5---|
|----------------------------------/3-------|
|-------------------------------------/7-0_-|

i love this song, it has some wicked bass
            
Tabs too difficult? Try these video lessons and learn fast.


comments powered by Disqus
↑ Back to top | Tablatures and chords are parodies/interpretations of the original songs. You may use it for private study, scholarship, research or language learning purposes only