» » »

Goldfinger, Wake Up Tabs (ver.1)

Artists:  A B C D E F G H I J K L M N O P Q R S T U V W X Y Z # 

Wake Up Tabs (ver.1)

Goldfinger Tabs
 Rating:
4/5 (4 votes)
Wake Up lessons Tabs too difficult? Try these video lessons and learn fast
                TUNNING:E-A-D-G-B-E

E------------------------------------------------------------------------
B--------------------------------------------------------3.5-3.5-3.5-3.5-
G--------------------------------------------------------3.5-3.5-3.5-3.5-
D--------------------------------------------------------3.5-3.5-3.5-3.5-
A-------2-2-2-2-2-------5-5-5-5-5-------2-2-2-2-2------------------------
E-0-0-0-----------3-3-3-----------0-0-0-----------3-3-3------------------
P.M.................................................... H.M.~~~~~~~~~~~~

E------------------------------------------------------------------------
B------------------------------------------------------------------------
G-------4-4-4-4-4-------7-7-7-7-7-------4-4-4-4-4-------7-7-7-7-7--------
D-2-2-2-4-4-4-4-4-5-5-5-7-7-7-7-7-2-2-2-4-4-4-4-4-5-5-5-7-7-7-7-7--------
A-2-2-2-2-2-2-2-2-5-5-5-5-5-5-5-5-2-2-2-2-2-2-2-2-5-5-5-5-5-5-5-5--------
E-0-0-0-----------3-3-3-----------0-0-0-----------3-3-3------------------

THIS ISNT ALL OF THE SONG, CAUSE THE OTHER PARTS ARE HARD TO MAKE OUT, SO TOO BAD DUDES!!!!!!!!!!!!!!!!!!!!!!!
LATER!!
            
Submit corrections

comments powered by Disqus
↑ Back to top | Goldfinger Tabs for Wake Up. Lyrics for acoustic guitar and electric guitar. Tablatures and chords are parodies/interpretations of the original songs. You may use it for private study, scholarship, research or language learning purposes only