» » »

Tony Hawk 4 Song Bass tabs (ver.1)

Artists:  A B C D E F G H I J K L M N O P Q R S T U V W X Y Z # 

Tony Hawk 4 Song Bass tabs (ver.1)

Goldfinger
Rating:
0/5 (0 votes)

Hard to play? Try these video lessons and learn fast.
                Intro
G--------------------------|
D--------------------------|
A--------2----2----2----2--|
E------0----0----0----0----|

Verse
G---------------------------------------------|
D---------------------------------------------|
A---22222222--------44444444-----2222222------|
E-----------22222222---------0-2--------------|

Pre Chorus
G-------------------------------------|
D----------------------0----0---------|
A---0---0---0---0---4----7-----4------|
E-------------------------------------|

Chorus
G-----------------------------------------------------------------------------|
A-----------------------------------------------------------------------------|
D-----------000000---55---44---22222-----------0000000---55555555---00000000--|
E---333333----------------------------333333----------------------------------|

Outro
G-----------------------------------|
D-----------------------------------|
A--------2----2----2----2---2-------|
E------0----0----0----0-------0-----|
            
Hard to play? Try these video lessons and learn fast. | Correct




comments powered by Disqus
↑ Back to top | Tablatures and chords are parodies/interpretations of the original songs. You may use it for private study, scholarship, research or language learning purposes only