» » »

Goldfinger, The Upper Hand Tabs (ver.1)

Artists:  A B C D E F G H I J K L M N O P Q R S T U V W X Y Z # 

The Upper Hand Tabs (ver.1)

Goldfinger Tabs
 Rating:
4/5 (4 votes)
The Upper Hand lessons Tabs too difficult? Try these video lessons and learn fast
1
                (Verse/Chorus)
     A           E            (D minor  ?)          A
e-------------------------------------------------------
B-------------------------------------------------------
G-------------9-9-9-9-9-9-11-11-11-11-11-11-7-7-7-7-7-7-
D-7-7-7-7-7-7-9-9-9-9-9-9-11-11-11-11-11-11-7-7-7-7-7-7-   4x
A-7-7-7-7-7-7-7-7-7-7-7-7-9--9--9--9--9--9--5-5-5-5-5-5-
E-5-5-5-5-5-5-------------------------------------------

(Pre chorus)
     D                        A          A   G#5 F#5 E
e-------------------------------------------------------
B-------------------------------------------------------
G-7x7x7x7x7x7x7x7x7x------------------------------------   2x   
D-7x7x7x7x7x7x7x7x7x-7x7x7x7x7x7x7x7x7x7-7-7-6-4-1----
A-5x5x5x5x5x5x5x5x5x-7x7x7x7x7x7x7x7x7x7-7-7-6-4-2----
E--------------------5x5x5x5x5x5x5x5x5x5-5-5-4-2-2----

(Chorus)
      A             E          (Dm?)            D
e-------------------------------------------------------
B-------------------------------------------------------
G-------------9-9-9-9-9-9-11-11-11-11-11-11-7-7-7-7-7-7-
D-7-7-7-7-7-7-9-9-9-9-9-9-11-11-11-11-11-11-7-7-7-7-7-7-   2x
A-7-7-7-7-7-7-7-7-7-7-7-7-9--9--9--9--9--9--5-5-5-5-5-5-
E-5-5-5-5-5-5-------------------------------------------

(Lead after Chorus)

e-------------------------------------------------------
B-10-9-7-------------------10-9-7-----------------------
G--------9-7-9/11-7-7-7------------9-7-9/11-7-7-7-------
D-----------------------9-------------------------9-----
A-------------------------------------------------------
E-------------------------------------------------------

(2nd verse partly palm muted till 2nd time through on the D power chord)
       A          E             (Dm?)          D
e-------------------------------------------------------
B-------------------------------------------------------
G-------------9-9-9-9-9-9-11-11-11-11-11-11-7-7-7-7-7-7-
D-7-7-7-7-7-7-9-9-9-9-9-9-11-11-11-11-11-11-7-7-7-7-7-7-   4x
A-7-7-7-7-7-7-7-7-7-7-7-7-9--9--9--9--9--9--5-5-5-5-5-5-
E-5-5-5-5-5-5-------------------------------------------

Pm------------------------------------------------------------

(Pre chorus)
     D                        A          A   G#5 F#5 E
e-------------------------------------------------------
B-------------------------------------------------------
G-7x7x7x7x7x7x7x7x7x------------------------------------   2x   
D-7x7x7x7x7x7x7x7x7x-7x7x7x7x7x7x7x7x7x7-7-7-6-4-1----
A-5x5x5x5x5x5x5x5x5x-7x7x7x7x7x7x7x7x7x7-7-7-6-4-2----
E--------------------5x5x5x5x5x5x5x5x5x5-5-5-4-2-2----


(Chorus)
      A             E          (Dm?)            D
e-------------------------------------------------------
B-------------------------------------------------------
G-------------9-9-9-9-9-9-11-11-11-11-11-11-7-7-7-7-7-7-
D-7-7-7-7-7-7-9-9-9-9-9-9-11-11-11-11-11-11-7-7-7-7-7-7-   2x
A-7-7-7-7-7-7-7-7-7-7-7-7-9--9--9--9--9--9--5-5-5-5-5-5-
E-5-5-5-5-5-5-------------------------------------------


(Lead after Chorus)

e-------------------------------------------------------
B-10-9-7-------------------10-9-7-----------------------
G--------9-7-9/11-7-7-7------------9-7-9/11-7-7-7-------
D-----------------------9-------------------------9-----
A-------------------------------------------------------
E-------------------------------------------------------

(This is my first tab, i have checked it over as much as possible i couldn't remeber all the cord names 
but i new the chords themselves, sorry for any mistakes you might find and you mainly need to listen
to the song to get the righ strumming pattern.  Enjoy.  Goldfinger kick ass/arse!)
            
Submit corrections

comments powered by Disqus
↑ Back to top | Goldfinger Tabs for The Upper Hand. Lyrics for acoustic guitar and electric guitar. 1 Tablatures and chords are parodies/interpretations of the original songs. You may use it for private study, scholarship, research or language learning purposes only