» » »

Goldfinger, The Last Time Bass tabs (ver.1)

Artists:  A B C D E F G H I J K L M N O P Q R S T U V W X Y Z # 

The Last Time Bass tabs (ver.1)

Goldfinger Tabs
Rating:
0/5 (0 votes)
The Last Time  lessons Tabs too difficult? Try these video lessons and learn fast
                (1)
******NOTE******
/=Slide up, \=Slide Down

1. Intro
---7-5-4---4-----------------------------------------------------
-5-------7---55-2----------55-55555-00000-2----------------------
------------------3-5-55-----------------------------------------

2. Verse: Repeat 2x
-55555555-444444444-22222222--------------------33333333-22222222
-----------------------------55555555-333333333------------------

-2--2------------------------------------------------------------
--55-------------------------------------------------------------

3. Corus: Repeat 2x
-----7-----------------------------------------------------------
-5-5---5-5555-22-00----0000/-------------------------------------
--------------------33-------------------------------------------

4.
-5555-5555-00-0000-/5--------------------------------------------

5. Repeat 2 through 4

Bridge 2x
-----------2-----------777---------------------------------------
-33333333-3-3-55555555----5554\----------------------------------

6.
--------------------------------------------------7-54---4-------
----22-55-22---2----44-77-44--4----22-55-22---2-5------7---55-2--
-33----------3---55----------5--33----------3--------------------

-33-55-5---------------------------------------------------------

7. Repeat from 2 through Bridge

8. Interlude 
-7---------------------------------------------------------------
-9-7--------------2-2-2/7-9-7---7/9-7----------------------------
-----8/10-9-10-9--0-----------0-------10-9-10-9------------------

9.
---7-5-4---4-----------------------------------------------------
-5-------7---55-2------------------------------------------------
------------------3-5-55-----------------------------------------
10. Repeat 3. twice

11. Repeat 9. 

***Play in order***
            

comments powered by Disqus
↑ Back to top | Goldfinger Bass for The Last Time. Lyrics for acoustic guitar and electric guitar. Tablatures and chords are parodies/interpretations of the original songs. You may use it for private study, scholarship, research or language learning purposes only