» » »

Kids Are Alright Tabs (ver.2)

Artists:  A B C D E F G H I J K L M N O P Q R S T U V W X Y Z # 

Kids Are Alright Tabs (ver.2)

Goldfinger
Rating:
0/5 (0 votes)

Hard to play? Try these video lessons and learn fast.
                "(1)
golfinga - the kids are alright

Intro
----
----
-9:-
-9:-
-7:-
----

Verse:
-----------
-----------
--9--------
--9--7--9--
--7--7--9--
-----5--7--

Pre-Chorus:
--------------------
--------------------
-----4-----9-----4--
--4--4--7--9--4--4--
--4--2--7--7--4--2--
--2-----5-----2-----

Chours:
--------------
--------------
--9-----9-----
--9--9--9--9--
--7--9--7--9--
-----7-----7--

Bridge:
------------
------------
------------
--9------7--
--9------7--
--7(pm)--5--
"            
Hard to play? Try these video lessons and learn fast. | Correct




comments powered by Disqus
↑ Back to top | Tablatures and chords are parodies/interpretations of the original songs. You may use it for private study, scholarship, research or language learning purposes only