» » »

Goldfinger, The Innocent Tabs (ver.3)

Artists:  A B C D E F G H I J K L M N O P Q R S T U V W X Y Z # 

The Innocent Tabs (ver.3)

Goldfinger Tabs
 Rating:
4/5 (4 votes)
The Innocent lessons Tabs too difficult? Try these video lessons and learn fast
1
                INTRO - Piano/Drums (:10)	

Intro Guitar:  x1
e|---------------------------------------------------------------------------|
B|---------------------------------------------------------------------------|
G|--7----------------------------------7-------------------------------------|
D|--7-x5---7------9------7------5------7-x5---7------5~--\-------------------|
A|--5------7-x5---9-x4---7-x1---5-x5---5------7-x5---5~--\-pick-slide--------|
E|---------5------7------5------3-------------5------3~--\-------------------|
  pm..............................................
	
Verse 1:  x2
e|---------------------------------------------------------------------------|
B|---------------------------------------------------------------------------|
G|--7x7x7-\---------------------------------7x7x7----------------------------|
D|--7x7x7-\-7x7x7-/-9x9-\-x7x-\-5x5x5x5x5---7x7x7---7x7x7---555555555555-----|
A|--5x5x5-\-7x7x7-/-9x9-\-x7x-\-5x5x5x5x5---5x5x5---7x7x7---555555555555-----|
E|----------5x5x5-/-7x7-\-x5x-\-3x3x3x3x3-----------5x5x5---333333333333-----|
                                         (pm 2nd time only) .. .. .. ..

Chorus:  x2
e|-------------------------------------------------------------|-------------|
B|-------------------------------------------------------------|-------------|
G|--7-7x----------4-4x-----------------------------------------|--------7777-|
D|--7-7x--7x7x7---4-4x---4x4x4---555555--777777--9999999999----|-55-77--7777-|
A|--5-5x--7x7x7---2-2x---4x4x4---555555--777777--9999999999----|-55-77--5555-|
E|--------5x5x5----------2x2x2---333333--555555--7777777777----|-33-55-------|
                                                                2nd time only
                                                               (pickslide end)

Verse 2:  x2 (PM 1st Time Only)
e|---------------------------------------------------------------------------|
B|---------------------------------------------------------------------------|
G|--7----------------------------------7-------------------------------------|
D|--7-x5---7------9------7------5------7-x5---7------5-----------------------|
A|--5------7-x5---9-x4---7-x1---5-x5---5------7-x5---5-x5--------------------|
E|---------5------7------5------3-------------5------3-----------------------|
  	
Verse 2: Lead Riff (1st Time Only; PM all notes on G)
e|---------------------------------------------------------------------------|
B|------7--7--7--7--7--7--7--7--7--7--9--9--7--7--7--------------------------|
G|----77-77-77-77-77-77-77-77-77-77-77-77-77-77-77---------------------------|
D|---------------------------------------------------------------------------|
A|---------------------------------------------------------------------------|
E|---------------------------------------------------------------------------|

Chorus:  x2
e|-------------------------------------------------------------|-------------|
B|-------------------------------------------------------------|-------------|
G|--7-7x----------4-4x-----------------------------------------|--------7777-|
D|--7-7x--7x7x7---4-4x---4x4x4---555555--777777--9999999999----|-55-77--7777-|
A|--5-5x--7x7x7---2-2x---4x4x4---555555--777777--9999999999----|-55-77--5555-|
E|--------5x5x5----------2x2x2---333333--555555--7777777777----|-33-55-------|
                                                                2nd time only
                                                               (pickslide end)

Solo:
e|---------------------------------------------------------------------------|
B|---------------------------------------------------------------------------|
G|-------------------------------------------4-6-7-9-------------------------|
D|-------------------------------------------x-x-x-x-------------------------|
A|---5-5-5-7-5-4-4--2-2-2-0-2-4-5-----4-4-5--2-4-5-7-------------------------|
E|--------------------------------5-2----------------------------------------|

e|---------------------------------------------------------------------------|
B|---------------------------------------------------------------------------|
G|---------------------------------------------------------------------------|
D|---0-0-4-0-5-0-4-0-0-0-4-0-5-0-4-0-0-0-4-0-5-0-7-0-9-0-7-0-5-0-4-----------|
A|---------------------------------------------------------------------------|
E|---------------------------------------------------------------------------|
                                        ^harmonics
e|---------------------------------------------------------------------------|
B|------------------------------------7^-------7^----------------------------|
G|--------------------------------------7^-------7^--------------------------|
D|---0-0-4-0-5-0-4-0-0-0-4-0-5-0-4-0------7^---------------------------------|
A|---------------------------------------------------------------------------|
E|---------------------------------------------------------------------------|

Outro/Chorus:
e|---------------------------------------------------------------------------|
B|---------------------------------------------------------------------------|
G|---7~---------4~-----------------------------------------------------------|
D|---7~---7x7---4~---4x4---555555--777777--9999999999------------------------|
A|---5~---7x7---2~---4x4---555555--777777--9999999999------------------------|
E|--------5x5--------2x2---333333--555555--7777777777------------------------|

e|---------------------------------------------------------------------------|
B|---------------------------------------------------------------------------|
G|--7-7x----------4-4x-------------------------------------------------7-----|
D|--7-7x--7x7x7---4-4x---4x4x4---555555--777777--9999999999-----55-77--7-----|
A|--5-5x--7x7x7---2-2x---4x4x4---555555--777777--9999999999-----55-77--5-----|
E|--------5x5x5----------2x2x2---333333--555555--7777777777-----33-55--------|
                                                                
OUTRO -	Piano/Drums: fade out (2:35)

END

LYRICS:

The start of Armageddon
And it's just another day
We all saw the news
Nothing to say
So many friends are missing
And family members gone
And we all pray to God
Help them be strong
And now we stand together
Remembering that day
The lives we live
Will never be the same

And we don't know why
The innocent die
Will this world ever
Find a way to change?
And we don't know why
But we know it's not right
We don't know why
So many had to die
We don't know why
So many had to die

Hate has turned to others
For their religion or their skin
But hate can't solve
The problem it began
Everyone is angry
People are afraid
And no one knows
What decisions will be made

And we don't know why
The innocent die
Will this world ever
Find a way to change?
And we don't know why
But we know it's not right
We don't know why
So many had to die
We don't know why
So many had to die

We don't know why (Don't know why)
The innocent die (Don't know why)
Will this world ever
Find a way to change?
And we don't know why (Don't know why)
But we know it's not right (Don't know why)
Will any of us
Ever be the same?
Will any of this
Ever be the same?

I don't know why
The innocent die
Will any of us
Ever be the same?
Will any of this
Ever be the same?
            
Submit corrections

comments powered by Disqus
↑ Back to top | Goldfinger Tabs for The Innocent. Lyrics for acoustic guitar and electric guitar. 1 Tablatures and chords are parodies/interpretations of the original songs. You may use it for private study, scholarship, research or language learning purposes only