» » »

Goldfinger, The Innocent Tabs (ver.2)

Artists:  A B C D E F G H I J K L M N O P Q R S T U V W X Y Z # 

The Innocent Tabs (ver.2)

Goldfinger Tabs
 Rating:
4/5 (4 votes)
The Innocent lessons Tabs too difficult? Try these video lessons and learn fast
                INTRO / VERSE

E--------------------------------------------------------------------
B--------------------------------------------------------------------
G---7-7-7-7-7-7-7-7--------------------------------------------------
D---7-7-7-7-7-7-7-7-7-7-7-7-7-7-7-7-9-9-9-9-9-9-9-9--5-5-5-5-5-5-5-5-
A---5-5-5-5-5-5-5-5-7-7-7-7-7-7-7-7-9-9-9-9-9-9-9-9--5-5-5-5-5-5-5-5-
e-------------------5-5-5-5-5-5-5-5-7-7-7-7-7-7-7-7--3-3-3-3-3-3-3-3-


Chorus
E-----------------------------------            \\
B-----------------------------------            |
G-7-7-7-7---------------------------            |
D-7-7-7-7---7-7-7--9-9-9-9--4-4-4---            |
A-5-5-5-5---7-7-7--9-9-9-9--4-4-4---            |
e-----------5-5-5--7-7-7-7--2-2-2---             \\
                                                  \\  x2
E----------------------------------------         /
B----------------------------------------        /
G----------------------------------------       |
D-5-5-5-5---7-7-7-7-9-9-9-9-9-9-9-9------       |
A-5-5-5-5---7-7-7-7-9-9-9-9-9-9-9-9------       |
e-3-3-3-3---5-5-5-5-7-7-7-7-7-7-7-7------       /


Solo

E---------------------------------------------------------------------
B---------------------------------------------------------------------
G-------------------------------------------------------4---6--7--9---
D-------------------------------------------------------4---6--7--9---
A---5-5-5-7-5-4---4-4-0-2-2-2-0-2---4-5-5-5-0-4-4-4-0---2---4--5--7---
e---------------------------------------------------------------------

E--------------------------------------------------------------------
B--------------------------------------------------------------------
G--------------------------------------------------------------------
D-0-0-4-0-5-0-4-0--0-0-4-0-5-0-4-0--0-0-4-0-5-0-7-0-9-0-7-0-5-0------
A--------------------------------------------------------------------
e--------------------------------------------------------------------

E-------------------------------------------------------
B---------------------------------------7------7--------
G-----------------------------------------7-----7-------
D---0-0-4-0-5-0-4-0--0-0-4-0-5-0-4----------7----7------
A-------------------------------------------------------
e-------------------------------------------------------
                                       ^^^^resonate^^^^
            
Submit corrections

comments powered by Disqus
↑ Back to top | Goldfinger Tabs for The Innocent. Lyrics for acoustic guitar and electric guitar. Tablatures and chords are parodies/interpretations of the original songs. You may use it for private study, scholarship, research or language learning purposes only