>
 >
The Innocent

The Innocent Guitar Tabs

Goldfinger - The Innocent chords, tabs, tablatures, lyrics

Guitar lessons | Add/correct | Request | Top 50 tabs Artists:  A B C D E F G H I J K L M N O P Q R S T U V W X Y Z 0-9

The Innocent Guitar Tabs – Goldfinger

CD, Sheet music, Poster

Do you like The Innocent? Share with your friends now
Bass TabsBass Tabs v2ChordsChords v2TabsTabs v2Tabs v3Ukulele
RHYTHM PARTS

Verse: (palm muted until last chord)
------------------------------------------------------------
------------------------------------------------------------
--77777777-----------------------------77777777-------------
--77777777-77777777-999999-77-55555555-77777777-77777777-5~-
--55555555-77777777-999999-77-55555555-55555555-77777777-5~-
-----------55555555-777777-55-33333333----------55555555-3~-

Prechorus:
------------------------------------------------------------
------------------------------------------------------------
--7-77-7--------------------------7-77-7--------------------
--7-77-7--7-77-7--9-99-7--5-55-5--7-77-7--7-77-7--55555555--
--5-55-5--7-77-7--9-99-7--5-55-5--5-55-5--7-77-7--55555555--
----------5-55-5--7-77-5--3-33-3----------5-55-5--33333333--


Chorus:                         1st               2nd
-----------------------|--------------------|---------------
-----------------------|--------------------|---------------
--7-7--------4-4-------|--------------------|---------7~----
--7-7--77-7--4-4--44-4-|-5555-7777-99999999-|-5~--7~--7~----
--5-5--77-7--2-2--44-4-|-5555-7777-99999999-|-5~--7~--5~----
-------55-5-------22-2-|-3333-5555-77777777-|-3~--5~--------

LEAD PARTS

Intro: (piano)
-----------------------------------------------
-----------------------------------------------
-----------------------------------------------
--12-11--------12-11-----------12---12---0-----
--------12-9---------12-9-12---10---12---0-----
-----------------------------------------------

End of Chorus:
-----------------------------------------------
------------------------10-10------------------
--------9-9-11-11-12-12-------12-12-11-11-9-9--
--12-12----------------------------------------
-----------------------------------------------
-----------------------------------------------

Second Verse:
-----------------------------------
----------------------5-5----------
--7-7-7-7-7-7-7-7-7-7-----7-7-7-7--
-----------------------------------
-----------------------------------
-----------------------------------

Solo:
--7-77-7-7-6-------------6-7-------6-6-7---xx-4--xx-5--xx-7--xx-9--
--------------9-99-7-9---------7-9---------xx-4--xx-5--xx-7--xx-9--
-----------------------------0-------------xx-2--xx-3--xx-5--xx-7--

-------7-0-8-0-7------7-0-8-0-7------7-0-8-0-10-0-12-0-10-0-8-0-7--
--6-77-----------6-77-----------6-77-------------------------------

-----------------------------------14----------------14------------
-------7-0-8-0-7------7-0-8-0-7----------15--------------15--------
--6-77-----------6-77--------------------------14------------14----

Outro: (piano)
--12-11--------12-11-----------12---12---9-------12---12---7-------
--------12-9---------12-9-12---10---12---7-------10---12---5-------


Remember 9-11-2001





Comments


Popular Goldfinger tabs & chords
99 Red Balloons Bass Tabs
Get Up Bass Tabs
Im Down Bass Tabs
January Bass Tabs
Spokerman Bass Tabs
Superman 2 Chords
Upper Hand Drum Tabs
Chris Cayton 1 Tabs
Spkoesman Tabs
This Lonely Place Ukulele


Song lyrics



↑ Back to top | Tablatures and chords are parodies/interpretations of the original songs. You may use it for private study, scholarship, research or language learning purposes only
© 2014 AZChords.com Contact us | Privacy policy | DMCA | Add/correct tabs | Request tabs | Top 50 tabs