» » »

Goldfinger, The City With Two Faces Tabs (ver.1)

Artists:  A B C D E F G H I J K L M N O P Q R S T U V W X Y Z # 

The City With Two Faces Tabs (ver.1)

Goldfinger Tabs
 Rating:
4/5 (4 votes)
The City With Two Faces lessons Tabs too difficult? Try these video lessons and learn fast
                

==Intro and Verse==
   E5       G         B        B/C B/C
E------------------------------------------|
B------------------------------------------|
G---------------------4-4-4-4--4/5-4/5-----|
D--2-2-2-2--5-5-5-5---4-4-4-4--4/5-4/5-----|
A--2-2-2-2--5-5-5-5---2-2-2-2--2/3-2/3-----|
E--0-0-0-0--3-3-3-3------------------------|

==Chorus==
   C#      G
E-------------------|
B-------------------|
G--6-6-6------------|
D--6-6-6---5-5-5----|
A--4-4-4---5-5-5----|
E----------3-3-3----|
            
Submit corrections

comments powered by Disqus
↑ Back to top | Goldfinger Tabs for The City With Two Faces. Lyrics for acoustic guitar and electric guitar. Tablatures and chords are parodies/interpretations of the original songs. You may use it for private study, scholarship, research or language learning purposes only